Регистрация Вход Приветствую Вас
Меню сайта
 
 
 
 
 
 
 
 
 
 
 
 
 
 
 


Яндекс цитирования
 
 




And headed straight...
Into the shining sun.
OUTRO SOLO:
-----------------8--10--10/12===12\0-------------------------------------
-------8--8--10----------------------------------------------------------
--0/7-----------------------------------0--0--7b9r8b10r7b9r7p5h7p5--/9---
-------------------------------------------------------------------------
-------------------------------------------------------------------------
-------------------------------------------------------------------------
^ hmmmm - a bit tricky! :)
- there's probably a better
way of writing this!
------------------------12--12--12==--12------12------12==--12--------
------8-----------------13--13--13==--13--13--13--13--13==--13--------
--10-----9\5-----5/9----12--12--12==--12--12--12--12--12==--12--------
--------------7-------------------------------------------------------
----------------------------------------------------------------------
----------------------------------------------------------------------
release immdly ^ ^------- repeat this section 3 times ------^
--/15--15------15------15--/17--17--15===--12--15--17b20===---\15h17------
---13--13--13--13--13--13-------------------------------------------------
--------------------------------------------------------------------------
--------------------------------------------------------------------------
--------------------------------------------------------------------------
--------------------------------------------------------------------------
--b20==r17--15h17p15p12--15--12b13--10--10\8--8\7--7\5--5------7--8/10----
-----------------------------------------------------------10-------------
--------------------------------------------------------------------------
--------------------------------------------------------------------------
--------------------------------------------------------------------------
--------------------------------------------------------------------------
--8--7--8--7------7/8---------------------7--8----------------------------
--------------10-------8--8--8-----8--10--------0--0/8--------------------
--------------------------------9-----------------------9--7--7/9--5-5----
--------------------------------------------------------------------------
--------------------------------------------------------------------------
--------------------------------------------------------------------------
--------------------------------------------------------------------------
--------------------------------------------------------------------------
------5-5---0-5-5---0-5-5---0-5-5--7/9--5--5--5--4--5--4------------------
--7-7-----7-------7-------7-------------------------------7--5--5/7--5----
--------------------------------------------------------------------------
--------------------------------------------------------------------------
s.r.
-------------------------------------------------------------------------
-------------------------------------------------------------------------
------------------------------9--9--9--9b10rrrr5--7p5--12\9--9--7/9\7p5\-
-------------------------------------------------------------------------
--7\5--3-----------3/5--p3-----------------------------------------------
----------5--3--5--------------------------------------------------------
-----------------------------------------8/10--8----------------5---------
------------------------------------xxx--8/10--8-----5/8---5/8-----8--5h8-
--5---------------------------------xxx-----------------------------------
-----7------------------------------xxx-----------------------------------
--------7\5--3--5--5--5--3--3=====----------------------------------------
----------------5--5--5--3--3=====----------------------------------------
--------------------------------------------------------------------------
-----5---------------------------5--6--8--(3)/5----------------0----------
--7-----5------------------5--5------------------5--0--5======\0----------
----------------------5h7------------------------------5======\0----------
-------------------------------------------------------3======\-----------
--------------------------------------------------------------------------
^ v.rapid slide from 3rd fret

BASS:
2m35s
G:--------------------------------------------
D:--------------------------------------------
A:----------3-3-3-3-3-3-3-3-3-3-3-3-3-3-3-3---
E:------------------------------------------3-
....shining sun

(a)
-----------------------------------------------------------------
---------------------------5-------------------------------------
-3-3-3-3-3-3-3-3-3-3-3-3/7---7\3---------------------------------
---------------------------------1-1-1-1-1-1-1-1-1-1-1-1-1-1-1-1-
^---------^
Lost in thought And lost in time (1st time only)
Outside the rain Fell dark and slow
----------------- ----------------- -----------------
----------------- ----------------- -----------------
-0-0-0-0-0-0-0-0- ----------------- -----------------
-----------------^^^^^^^^^^^^^-3-3-3-3-3-3-3-3-^^^^^^-1-1-1-1-1-1-1-1-
^repeat this X2 ^
while the seeds of life and the seeds of change were planted
while I pondered on this dangerous & irresistible pastime X2
^^^^^ - this is continuous!
(b)
---------------------------------------------------------------------------
---------------------------------------------------------------------------
-0-0-0-0-0-0-0-0-----------------0-0-0-0-0-0-0-0-1-1-1-1-1-1-1-1-0-0-0-0-0-
-----------------1-1-1-1-1-1-1-1-------------------------------------------
I took... through our... I knew the... begun... And I...
---------------------------------------
---------------------------------------
-0-0-0-----------------3-3-3-3-3-3-3-3-
-------3-3-3-3-3-3-3-3-----------------
into the... sun...
Guitar Solo : Repeat (a) twice
Repeat (b)
There is a small bass riff done to lead onto the outro solo which I can't
make out.
Outro Solo :
First time:
---------------------------------------------------------------------------
-------------------------5b6r5p3 5b6r5p3-----------------------------------
-3-3-3-3-3-3-3-3-3-3-3-3---------------------------------------------------
-----------------------------------------1-1-1-1-1-1-1-1-1-1-1-1-1-1-1-----
^done v quickly^
---------------------------------------------------------------------------
---------------------------------------------------------------------------
-0-0-0-0-0-0-0-0-----------------------------------------------------------
-----------------3-3-3-3-3-3-3-3-1-1-1-1-1-1-1-1-1-1-1-1-1-1-1-1-----------
Друзья сайта
 
Пресса о Supermax!
Albums




 
 
 
 
 
 
 
 
 
 
 
 


Партнеры
 




Kurt Hauenstein и Supermax. Посвящается памяти музыканта. 2008 - 2018 Хостинг от uCoz