Регистрация Вход Приветствую Вас
Меню сайта
 
 
 
 
 
 
 
 
 
 
 
 
 
 
 


Яндекс цитирования
 
 




Another Brick In
The Wall Part 1
VERSE:
E|----------------------------5------5--5----x----5--5----5--5-|
B|----------------------------5p6----6--6----x----6--6----6--6-|
G|----------------------------5-7----7--7----x----7--7----7--7-|
D|-0--2--3--2---0--2--3--2----5-7----7--7----x----7--7----7--7-|
A|----------------------------5------5--5----x----5--5----5--5-|
E|----------------------------5------5--5----x----5--5----5--5-|
repeat 2x i think
E|--5------5--5----x----5--5----5--5-------------------------|
B|--5p6----6--6----x----6--6----6--6-------------------------|
G|--5-7----7--7----x----7--7----7--7-------------------------|
D|--5-7----7--7----x----7--7----7--7----0--2--3--2----0--2h3-|
A|--5------5--5----x----5--5----5--5-------------------------|
E|--5------5--5----x----5--5----5--5-------------------------|
E|-5------5--5-|
B|-5p6----6--6-|
G|-5-7----7--7-|
D|-5-7----7--7-|
A|-5------5--5-|
E|-5------5--5-|
E|--x----5----5--------5------5--5----x----5----5-|
B|--x----6----6--------5p6----6--6----x----6----6-|
G|--x----7----7--------5-7----7--7----x----7----7-|
D|--x----7----7--------5-7----7--7----x----7----7-|
A|--x----5----5--------5------5--5----x----5----5-|
E|--x----5----5--------5------5--5----x----5----5-|
PRE-CHORUS:
E|-3------x--3--x--3----3--3--3--3--3----------3------x--3--x-|
B|-3------x--3--x--3----3--3--3--3--3----------3------x--3--x-|
G|-4------x--4--x--4----4--4--4--4--4----------4------x--4--x-|
D|-5------x--5--x--5----5--5--5--5--5----------5------x--5--x-|
A|-5------x--5--x--5----5--5--5--5--5----------5------x--5--x-|
E|-3------x--3--x--3----3--3--3--3--3----------3------x--3--x-|
E|-3----3--3--3--3--3-----------5------5--5------10----9----10-|
B|-3----3--3--3--3--3-----------5p6----6--6------10----9----10-|
G|-4----4--4--4--4--4-----------5-7----7--7--------------------|
D|-5----5--5--5--5--5-----------5-7----7--7--------------------|
A|-5----5--5--5--5--5-----------5------5--5--------------------|
E|-3----3--3--3--3--3-----------5------5--5--------------------|
CHORUS:
F
E|----10----9--9----7--7--7----5-----------------------------1-|
B|----10----9--9----8--8--8----6-----------------------------1-|
G|-----------------------------------------------------------2-|
D|-----------------------------------------------------------3-|
A|-----------------------------------------------------------3-|
E|-----------------------------------------------------------1-|
C C C C
E|--1------1------1------3------3------3------3----5------5--5-|
B|--1------1------1------5------5------5------5----5p6----6--6-|
G|--2------2------2------5------5------5------5----5-7----7--7-|
D|--3------3------3------5------5------5------5----5-7----7--7-|
A|--3------3------3------3------3------3------3----5------5--5-|
E|--1------1------1------3------3------3------3----5------5--5-|
F
E|----x----5----5----------5------5--5----x----5----5--------1-|
B|----x----6----6----------5p6----6--6----x----6----6--------1-|
G|----x----7----7----------5-7----7--7----x----7----7--------2-|
D|----x----7----7----------5-7----7--7----x----7----7--------3-|
A|----x----5----5----------5------5--5----x----5----5--------3-|
E|----x----5----5----------5------5--5----x----5----5--------1-|
C C C C
E|--1-----1-----1----3-----3-----3------3----------5------5--5-|
B|--1-----1-----1----5-----5-----5------5----------5p6----6--6-|
G|--2-----2-----2----5-----5-----5------5----------5-7----7--7-|
D|--3-----3-----3----5-----5-----5------5----------5-7----7--7-|
A|--3-----3-----3----3-----3-----3------3----------5------5--5-|
E|--1-----1-----1----3-----3-----3------3----------5------5--5-|
repeat whole thing again
before solo :
E|-x----5--5----------5------5--5----x----5----5---------------|
B|-x----6--6----------5p6----6--6----x----6----6-----13p10-----|
G|-x----7--7----------5-7----7--7----x----7----7------------12-|
D|-x----7--7----------5-7----7--7----x----7----7---------------|
A|-x----5--5----------5------5--5----x----5----5---------------|
E|-x----5--5----------5------5--5----x----5----5---------------|
E|------------------------------10-------------------------------------|
B|--10--------------------------10--10----10------------13b15----r--13-|
G|------12b14----13--13b15------10--10----10---------------------------|
D|---------------------------------------------------------------------|
A|---------------------------------------------------------------------|
E|---------------------------------------------------------------------|
E|-----------------------------------------------------------------|
B|----13------12p10------------------------------------------------|
G|---------------------12----12b14----------10\9----------9--------|
D|--------------------------------------------------12-------10/12-|
A|-----------------------------------------------------------------|
E|-----------------------------------------------------------------|
Друзья сайта
 
Пресса о Supermax!
Albums




 
 
 
 
 
 
 
 
 
 
 
 


Партнеры
 




Kurt Hauenstein и Supermax. Посвящается памяти музыканта. 2008 - 2018 Хостинг от uCoz