Регистрация Вход Приветствую Вас
Меню сайта
 
 
 
 
 
 
 
 
 
 
 
 
 
 
 


Яндекс цитирования
 
 




Astronomy Domine (2 вариант)
INTRO:
Vamp till drums
E E E Eb/E Eb/E
E--------------------7-----------7-6--6---------------------------
B--------------------9-----------9-8--8---------------------------
G------------------:-9-----------9-8--8--------------------------:
D--------------------9-----------9-8--8---------------------------
A--------------------7-----------7-6--6---------------------------
E--0-0-0-0-0-0-0-0---0-----5b7r0-0-0--0---------------------------
crescendo Hit hard, then strum last chord a bit softer
VERSE:
E (play as standard E)
Lime and limpid green a second scene the fight between the blue you
Eb (play as A barre on 6)
once knew.
(All other chords play as A and E form barres)
G A
Floating down the sound resounds around the icey waters underground
E Eb
Jupiter and Saturn, Oberon, Miranda, and Titania
G G#
Neptune, Titan, stars can frighten
-12-12-12-11-11-11-10-10-10-9-9-9-8-8-8-7-7-7-6-6-6-5-5-5-----------------
-10-10-10--9--9--9--8--8--8-7-7-7-6-6-6-5-5-5-4-4-4-3-3-3-----------------
--------------------------------------------------------------------------
--------------------------------------------------------------------------
--------------------------------------------------------------------------
--------------------------------------------------------------------------
-10-10-----9-9---8-8---7-7---6-6---5-5---4-4---3-3------------------------
-10----10--9---9-8---8-7---7-6---6-5---5-4---4-3---3----------------------
-11-------10-----9-----8-----7-----6-----5-----4--------------------------
--------------------------------------------------------------------------
--------------------------------------------------------------------------
--------------------------------------------------------------------------
-2--------2--------3--------3------3-\----0-------------------------------
-3--3---3---3---3--4--4---4---4----4-\----0-------------------------------
-2----2-------2----3----3-------3--3-\----1-------------------------------
-0-----------------1---------------1-\----2-------------------------------
------------------------------------------2-------------------------------
------------------------------------------0-------------------------------
(play following chords as E form barres falling from fret 12)
E Eb D C# C B Bb A
Aaah Aaah Aaah Aaah Aaah Aaah Aaah Aaah
(and again as A form barres falling from 12)
A G# G F# F E Eb D
Aaah Aaah Aaah Aaah Aaah Aaah Aaah Aaah
D Eb E
SOLO:(with slight distortion, heavy delay)
E
E--12-12-12-12-12-12-12-12-12-12-12-12-12-12-12-12-
B--------------------------------------------------
G--------------------------------------------------
D--------------------------------------------------
A--------------------------------------------------
E--------------------------------------------------
Eb
E--11-11-11-11-11-11-11-11-11-11-11-11-11-11-11-11-
B--------------------------------------------------
G--------------------------------------------------
D--------------------------------------------------
A--------------------------------------------------
E--------------------------------------------------
G A
E--3-3sl10-10-10sl3-3-3sl10-10-10sl5--5-----------------
B---------------------------------------5---------------
G-----------------------------------------7b8-----------
D---------------------------------------------7~~~~~----
A-------------------------------------------------------
E-------------------------------------------------------
Follow same progression as verses.
Repeat chord sequence twice and go into second verse.
Second verse :
(Same progression)
Blinding signs flap
Flicker flicker flicker flam
Pow Wow
Stairway scare Dan
Dare who's there
Aaah Aaah Aaah Aaah Aaah Aaah Aaah Aaah
Aaah Aaah Aaah Aaah Aaah Aaah Aaah Aaah
(ritard)
E
Lime and limpid green the sound resounds the icey waters under
E
Lime and limpid green the sound resounds the icey waters underground.
Друзья сайта
 
Пресса о Supermax!
Albums




 
 
 
 
 
 
 
 
 
 
 
 


Партнеры
 




Kurt Hauenstein и Supermax. Посвящается памяти музыканта. 2008 - 2018 Хостинг от uCoz