Регистрация Вход Приветствую Вас
Меню сайта
 
 
 
 
 
 
 
 
 
 
 
 
 
 
 


Яндекс цитирования
 
 




Atom Heart Mother
Father`s Shout
G|--------------------------|-----------------------|----------------|
D|--------------------------|-----------------------|----------------|
A|--------------------------|-----3--1-----------3--|----------------|
E|--0-----0-----3-----3-----|--1--------3--0--0-----|--0-----0-----3-|
G|-----|-----------------------|--------------------------|----------|
D|-----|-----------------------|--------------------------|----------|
A|-----|-----3--1-----------3--|--------------------------|--------2-|
E|--3--|--1--------3--0--0-----|--0-----0-----3-----3-----|--5--5----|
------|-----------------------|--------------------------|----------|
------|-----------------------|--------------------------|----------|
2--2--|-----------------------|--------------------------|----------|
------|--0-----0-----3-----3--|--1-----1-----1-----1-----|--1-----1-|
Sounds, motorcycle
G|--------------|-----------||-----------------------------||----|
D|--------------|-----------||-----------------------------||----|
A|--------------|-----------||-----------------------------||----|
E|--1-----1-----|--0--------||-----------------------------||--0-|
------------------|-----------------------|----------------------|
------------------|-----------------------|----------------------|
------------------|-----3--1-----------3--|----------------------|
0-----3-----3-----|--1--------3--0--0-----|--0-----0-----3-----3-|
---------------------|--------------------------|----------------|
---------------------|--------------------------|----------------|
---3--1-----------3--|--------------------------|--------2--2--2-|
1--------3--0--0-----|--0-----0-----3-----3-----|--5--5----------|
---------------------|--------------------------|----------------|
---------------------|--------------------------|----------------|
---------------------|--------------------------|----------------|
0-----0-----3-----3--|--1-----1-----1-----1-----|--1-----1-----1-|
Breast Milky (2:52)
---|-----------||----------------16--12------16--12------|-----|
---|-----------||--14-----14-------------14----------14--|--14-|
---|-----------||----------------------------------------|-----|
1--|--0--------||----------------------------------------|-----|
-------16--12------16--12------|------------16--12------16--12-----|
14-------------14----------14--|--14----------------14----------14-|
-------------------------------|-----------------------------------|
-------------------------------|-----------------------------------|
G|------------------------------------|-----------------------------|
D|------------14--10------14--10------|------------12--9------12--9-|
A|--12----------------12----------12--|--10---------------10--------|
E|------------------------------------|-----------------------------|
----|------------------------------------|--------------------------|
----|------------16--12------16--12------|------------13--9------13-|
10--|--14----------------14----------14--|--11---------------11-----|
----|------------------------------------|--------------------------|
-------|------------------------------------|----------------|-----|
9------|------------15--12------15--12------|----------------|--12-|
---11--|--13----------------13----------13--|--11-----11-----|-----|
-------|------------------------------------|----------------|-----|
G|--------------------|-------------------------------|-----|
D|--12-----14-----14--|--14--------14--14--14-----14--|-----|
A|--------------------|-------------------------------|--12-|
E|--------------------|-------------------------------|-----|
G|-------------------------------|---------------|-------------------|
D|-------------------------------|---------------|-------------------|
A|--10--------10--10--10-----10--|--14-----------|--11--------11--11-|
E|-------------------------------|---------------|-------------------|
-----------|---------------|----------------|---------------------|
-----------|---------------|----------------|---------------------|
11-----11--|--13-----------|----------------|--12--12--14--14--14-|
-----------|---------------|--11-----11-----|---------------------|
guitar comes in
----------------------|---------------------|--------------------|
----------14--14--14--|---------------------|--------------------|
----------------------|--12-----12--12--12--|--10-----10--10--10-|
12--------------------|---------------------|--------------------|
--------------------------|---------------------|--------------------|
-------16--12-------------|---------------------|--------------------|
14-------------14--8--10--|--11-----11--11--11--|--13-----13--13--13-|
--------------------------|---------------------|--------------------|
----|----------------------------|---------------------|-------------|
----|----------------------------|---------------------|-------------|
13--|----------------------------|--12-----12--12--12--|--14--14--14-|
----|--11-----11--11-----11--11--|---------------------|-------------|
----||--------------------------|---------------------|------------|
----||------14----------14--14--|---------------------|------------|
14--||--------------------------|--12-----12--12--12--|--10-----10-|
----||--12------12--12----------|---------------------|------------|
--------|---------------------|-----------------|--------------------|
--------|---------------------|------13--9------|--------------------|
10--10--|--14-----14--14--14--|--11---------11--|--13-----13--13--13-|
--------|---------------------|-----------------|--------------------|
G|----------------------------|------------------------------||-----|
D|----------------------------|------------------------------||-----|
A|----------------------------|--12-----12-----14-----14-----||-----|
E|--11-----11--11-----11--11--|------------------------------||--12-|
Друзья сайта
 
Пресса о Supermax!
Albums




 
 
 
 
 
 
 
 
 
 
 
 


Партнеры
 




Kurt Hauenstein и Supermax. Посвящается памяти музыканта. 2008 - 2018 Хостинг от uCoz