Регистрация Вход Приветствую Вас
Меню сайта
 
 
 
 
 
 
 
 
 
 
 
 
 
 
 


Яндекс цитирования
 
 




Back To Life
Bb Am7
e-----------------------------------------------------------
B--8--6--8p6p5-h6--6-5h6p5----5-----------------------------
G---------------------------7----7b(9)------r7p5---5-7-7----
D------------------------------------------------7----------
A-----------------------------------------------------------
E-----------------------------------------------------------
Gsus4 C
e----------------------------------------------------------
B----------------------------------------------------------
G-------b(9)r7p5-7---p5p4----h5----------------------------
D----------------------------------------------------------
A----------------------------------------------------------
E----------------------------------------------------------

VERSE:
C Fmaj7
Where were you when I was burned and broken,
Am G F
While the days slipped by, from my window watching?
C Fmaj7
And Where were you when I was hurt and I was helpless?
Am Gadd9 F
Beause the things you say and the things you do surround me.
Am7 F
While you were hanging yourself on someone else's words,
Am Bb
Dying to believe in what you heard,
Am7 Gsus4 G Csus2
I was staring straight into the shining sun.
Csus2 Fsus2 F
Lost in thought and lost in time,
Am G5 F
While the seeds of life and the seeds of change were planted.
Csus2 C Fsus2
Outside the rain fell dark and slow,
Am G Fsus2
While I pondered on this dangerous but irresistible pastime.
Am Fsus2
I took a heavenly ride through our silence.
Am Bbsus2
I knew the moment had arrived
Am Gsus4 Csus2
For killing the past and coming back to life.
GUITAR SOLO:
e:------------------------------------------------------------------------
B:-----------8---------------------------8--10--10b13==r10--8--10---------
G:-----7b9===---b9r7--5-----5--7b9===-7---------------------------9p7--5--
D:--5--------------------7------------------------------------------------
A:------------------------------------------------------------------------
E:------------------------------------------------------------------------
--------------------------------------------------------------------------
--------------------10--8-------------------------------------------------
-----5--h7-----7b9---------9--9s7--5--7b8r------------5--7-----5--7b9-----
--7-----------------------------------------7--5--h7--------7-------------
--------------------------------------------------------------------------
--------------------------------------------------------------------------
----------------------------------------------------3/8--10--10b12--15---
------------------8--5---------------------------------------------------
--7p5-----5--7b9--------7b8--5-----7=--5--7b--/0-------------------------
-------7------------------------7----------------------------------------
-------------------------------------------------------------------------
-------------------------------------------------------------------------
s.r.
--b12rrrr10--8------8--/17--17--15--15--13--13--12h13p12------------------
----------------10----------------------------------------13------11/15---
--------------------------------------------------------------12----------
--------------------------------------------------------------------------
--------------------------------------------------------------------------
--------------------------------------------------------------------------
--12\8----/20--20--20--19h20--20--19--19--17--17--19--15--17--12--15--10--
--------------------------------------------------------------------------
--------------------------------------------------------------------------
--------------------------------------------------------------------------
--------------------------------------------------------------------------
--------------------------------------------------------------------------
--12b--8----------8------10b12r10--8--10------8--8s0----------------------
----------10--10-----10-------------------10------------------------------
--------------------------------------------------------------------------
--------------------------------------------------------------------------
--------------------------------------------------------------------------
--------------------------------------------------------------------------
SECOND VERSE :
-------------8/10--8--------------------13p10------10-------------------
----xxx-x----8/10--10--------------------------13------13b15r13---------
----xxx-x---------------------------------------------------------------
----xxx-x---------------------------------------------------------------
------------------------------------------------------------------------
------------------------------------------------------------------------
...silence ...had begun
----11p9p8--h9 9--9\2----------------
-------------------------------------
-------------------------------------
-------------------------------------
-------------------------------------
-------------------------------------
...shining sun
Друзья сайта
 
Пресса о Supermax!
Albums




 
 
 
 
 
 
 
 
 
 
 
 


Партнеры
 




Kurt Hauenstein и Supermax. Посвящается памяти музыканта. 2008 - 2018 Хостинг от uCoz