Регистрация Вход Приветствую Вас
Меню сайта
 
 
 
 
 
 
 
 
 
 
 
 
 
 
 


Яндекс цитирования
 
 




Brain Damage
D
E|-2--------------2------|
B|-3------3--------------|<-- unless otherwise stated, use this
G|-2----------2----------| pattern for all D chords.
D|-0---0---------------0-|
A|-----------------------|
E|-----------------------|
G7/D
E|-1--------------1------|
B|-0------0--------------|
G|-0---------0-----------|
D|-----0---------------0-|
A|-----------------------|
E|-----------------------|
E/D
E|-4-----------4----|
B|-5-----5----------|
G|-4--------4-------|
D|-0--0-----------0-|
A|------------------|
E|------------------|
A7
E|-3-------------|
B|-2--------2----|
G|-2--2--2-----2-|
D|-2-------------|
A|-0-------------|
E|---------------|
Dsus2
E|--------0-------|
B|--3--------3----|
G|-----2--------2-|
D|----------------|
A|----------------|
E|----------------|
D(8times)
D D G7/D(2 times)
The lunatic is on the grass
D D G7/D(2 times)
The lunatic is on the grass
D D
Remembering games, and,
daisy chains and laughs Got to keep the loonies on the path
E|-4-------4----4-------4----3---------------3-----------------|
B|-5---5--------5---5--------2-------2---2---2------------2----|
G|-4-----4------4-----4------2---2-2---2-----2------2----------|
D|---0-------0----0-------0--2---------------2-----------------|
A|-----------------------------0-----------------0-----0-----0-|
E|-------------------------------------------------------------|
The lunatic is in th hall
E|-2-------2--0-----0---------2-------2---2-------2---1-----1--|
B|-3---3-3-------3------3-----3---3-------3---3-------0--0-----|
G|-2-----2------------2-----2-2-----2-----2-----2-----0----0---|
D|-0-0------0---0--0------0-----0-------0---0-------0---0----0-|
A|-------------------------------------------------------------|
E|-------------------------------------------------------------|
The lunatics are in my hall
E|-1-------1---2-------2---2-------2---1-------1---1-------1---|
B|-0---0-------3---3-------3---3-------0---0-------0---0-------|
G|-0-----0-----2-----2-----2-----2-----0-----0-----0-----0-----|
D|---0-------0---0-------0---0-------0---0-------0---0-------0-|
A|-------------------------------------------------------------|
E|-------------------------------------------------------------|
The paper holds their folded faces to the floor And
E|-2-------2----2-------2----4----------4-----4-----------4----|
B|-3---3--------3---3--------5-----5----------5-----5----------|
G|-2-----2------2-----2------4--------4----4--4--------4-------|
D|---0-------0----0-------0--0--0----------0--0--0-----------0-|
A|-------------------------------------------------------------|
E|-------------------------------------------------------------|

every day, the paper boy brings more
E|-3-----------3-------3---2-------2---0-------0-----2-----2-0-|
B|-2-------2---2---2---2---3---3-----------3-----3---1---1-----|
G|-2---2---2---2---2---2---2-----------------2-------2-2-------|
D|-2-----------2-----------0-0---0---0---0---0-------0---------|
A|---0---0---0---0---0---0-------------------------0-----------|
E|-------------------------------------------------------------|
Chorus;
G A
And if the dam breaks open many years too soon
E|-----0---0---------------------------------------------------|
B|-1-----0----------------0-----------0--------------2---------|
G|--------------------0---0---0---------0------------2-------2-|
D|---4------------------------------0-----------2----2---0>2---|
A|--------------------------------2----------0--0--------------|
E|-----------0-2---3------------3---------3--------------------|
C G
And if there is no room upon the hill
E|-------------------0-------------------------------------|
B|-------2-------1-----3-1>3-----------------------------0-|
G|-----2---2-------0-----------------0---0---------------0-|
D|---2--------------------------2----2---2--2--------0-----|
A|-0---------0-3--------------3---3--3---3--3--------------|
E|-----------------------------------------------3---------|
A7
And if your head explodes with dark forebodings too
E|---------------------------------------------------------|
B|-0-------0-----0------------------0--------------0-------|
G|----0----0--0--0--------------0------0-------0>2---0-0>2-|
D|---------0---------------0-----------------2-------------|
A|-------------------------------------------0-------------|
E|-------3------------3-------------------3----------------|
I`ll see you in the dark side of the moon
E|---------------------------------0-0-------------------------|
B|-------2-------------1-----------1-1-----------------0-------|
G|---2-----2-------0--------0------0-0-------------------0-----|
D|-----2---------------------------2-2-------------------------|
A|-0-----------3----------------3----3-----------------------0-|
E|---------------------------------------------3-----3-----3---|
Ah---------- Ah
E|----------------------------------------|
B|-----3----------3---------------2---2---|
G|---2---2---0----4-------0-----2---2---0-|
D|---------4-2--------5-------------------|
A|-2---------2----------------0-----------|
E|-----------0----------------------------|
The lunatic is in my head
E|-2-------2---2---------2-----1-------1---1-------1---|
B|-3---3-------3-----3---------0---0-------0---0-------|
G|-2-----2-----2-------2-------0-----0-----0-----0-----|
D|---0-------0-----0--------0----0-------0---0-------0-|
A|-----------------------------------------------------|
E|-----------------------------------------------------|
The lunatic is in my head
E|-2-------2----2-------2----1-------1---1-------1---|
B|-3---3--------3---3--------0---0-------0---0-------|
G|-2-----2------2-----2------0-----0-----0-----0-----|
D|---0-------0----0-------0----0-------0---0-------0-|
A|---------------------------------------------------|
E|---------------------------------------------------|
Друзья сайта
 
Пресса о Supermax!
Albums




 
 
 
 
 
 
 
 
 
 
 
 


Партнеры
 




Kurt Hauenstein и Supermax. Посвящается памяти музыканта. 2008 - 2018 Хостинг от uCoz