Регистрация Вход Приветствую Вас
Меню сайта
 
 
 
 
 
 
 
 
 
 
 
 
 
 
 


Яндекс цитирования
 
 




Brain Damage (2 вариант)
Intro
G ||-----|-----|-----|--------|--------|------------|--------|------------|
A ||-----|-----|-----|----7---|--------|---------7--|--------|---------7--|
D ||--5--|-----|-----|--------|---5----|--5--5------|---5----|--5--5------|
E ||-----|-----|-----|--------|--------|------------|--------|------------|

Verse
(The Lunatic is on the grass...)
|--------|-------------|----------|----------------|----------|-----------7--|
|--------|----------7--|--5---5---|--5---------0h2-|--0----0--|--0--0--------|
|---5----|--5--5-------|----------|----------2-----|----------|--------------|
|--------|-------------|----------|-------3--------|----------|--------------|

|----------|-------------|-----------|--------------|-----------|------------|
|--5----5--|--5----------|-----------|--------------|-----------|---------7--|
|----------|----------2--|--5-----5--|--5---5----5--|--5-----5--|--5--5------|
|----------|-------3-----|-----------|--------------|-----------|------------|

(Got to keep the loonies on the path...)
|-----2---|-----------|----------|---------2--|
|---------|-----------|--0-------|--0--0------|
|--0------|--0-----4--|----------|------------|
|---------|-----------|----------|------------|


Verse again with some variations
Then the following:
(And if the dam...)
|--------------|--7---|--7------------4--|----------|---------|---------|
|-----------7--|------|--------4---7-----|o------5--|------5--|------7--|
|--5---5-------|------|-----5------------|o---------|---------|---------|
|--------------|------|------------------|--3-------|--3------|--5------|
|-----------------|----------|------------------|-----------|-----------------------|
|------7--7----7--|----------|------------------|--5---5-5--|--5----------2-2-3-3--o|
|-----------------|--3----3--|--3--3---3--3--5--|-----------|----------------------o|
|--5--------------|----------|------------------|-----------|-----3----3------------|

Repeat the above two lines with some variation to the "And if your heaed explodes" lyrics
Roger then goes to another variation on the verse which
is mainly octaves and fifths in A and D
Repeat the chorus part again twice to the "And if the cloud bursts" lyrics
Here is the ending part which segues into Eclipse:

"I`ll see you on the..." "Ah"
|-----------|------------|-----|-------|-------|--------------|
|-----------|------------|--5--|-------|--2----|--------------|
|--3---3----|--3----3h5--|-----|--2----|-------|--0--0--2--4--|
|-----------|------------|-----|-------|-------|--------------|

|----------|----------|----------|---------------------|---------|----------|
|----------|----------|-------5--|----------------0h2--|---------|----------|
|--5----5--|--5--5----|----------|-----5-------2-------|--5---5--|--5--5----|
|----------|----------|--3-------|--3-------3----------|---------|----------|

|---------|-------|------|------|------|---------|------2--|--------------|
|------5--|-------|--0---|--0---|--2---|--2--2---|---------|--------------|
|---------|-------|------|------|------|---------|-0-------|--0--0--2--4--|
|--3------|--3----|------|------|------|---------|---------|--------------|

|------|--------|------|---------|------|---------2--|-------2--|
|------|--------|------|---------|--2---|--2--2------|----------|
|--5---|--5-----|--5---|--5--5---|------|------------|--0-------|
|------|-----5--|------|---------|------|------------|----------|

|--------------|-----------|--------7--|
|--------------|-----------|-----------| To Eclipse
|--0--0--2--4--|--5----5---|--5--------|
|--------------|-----------|-----------|
Друзья сайта
 
Пресса о Supermax!
Albums




 
 
 
 
 
 
 
 
 
 
 
 


Партнеры
 




Kurt Hauenstein и Supermax. Посвящается памяти музыканта. 2008 - 2018 Хостинг от uCoz