Регистрация Вход Приветствую Вас
Меню сайта
 
 
 
 
 
 
 
 
 
 
 
 
 
 
 


Яндекс цитирования
 
 




Brick In
|-------------------------------------------------------|
|-------------------------------------------------------|
|--12--10-----------------------------------------------|
|--12--10-----------------------------------------------|
|----------12--10---10--8--------------------8----------|
|--------------------------10p8-----10--10-----10p8--10-|
|------------------------------------------------------|
|-----------------5h6p5--------------------------6b(8)-|
|---------5--7---------7---7-p-5------5--5--7p5--------|
|----/7--------------------------7---------------------|
|------------------------------------------------------|
|------------------------------------------------------|
|-------------------------------------15b(17)-13----|
|--13b(15)---13b(15)b(17)rb(13)------------------15-|
|---------------------------------------------------|
|---------------------------------------------------|
|---------------------------------------------------|
|---------------------------------------------------|
|-----13-----15b(17)rb(15)b(17)rb(15)b(17)rb(15)----15b(17)--
|-/15----15-------------------------------------15---------15
|------------------------------------------------------------
|------------------------------------------------------------
|------------------------------------------------------------
|------------------------------------------------------------
|--18b(20)--(20)---20b(22)---20-p-17---20-p-17-|
|----------------------------------------------|
|----------------------------------------------|
|----------------------------------------------|
|----------------------------------------------|
|----------------------------------------------|
|--------------------------------------------------------|
|-------------------------------------------12--12---10--|
|-10--10--10----------------------12--10----12--12---10--|
|-------------12------------------12--10------------(10)-|
|----------------------10-10-10--------------------------|
|--------------------------------------------------------|
|------------------------------------------------------|
|--x--x--10--------------------------------------------|
|--x--x--10---x--x-------------------------------------|
|-------------------12---------------------------------|
|---------------------------------10---8---10---8------|
|---------------------------------------------------10-|
Keyboard:
NB: the chords are held down - the beats shown are just to
establish timing.

| Dm / / / | / / / C | x8
| G / / / | / / / / | Dm / / / | / / / /| x2
| C / / / | / / / / |
| Bb / / / | / / / / |
| C / / / | / / / / |
| no chord ||end of solo
Друзья сайта
 
Пресса о Supermax!
Albums




 
 
 
 
 
 
 
 
 
 
 
 


Партнеры
 




Kurt Hauenstein и Supermax. Посвящается памяти музыканта. 2008 - 2018 Хостинг от uCoz