Регистрация Вход Приветствую Вас
Меню сайта
 
 
 
 
 
 
 
 
 
 
 
 
 
 
 


Яндекс цитирования
 
 




Comfortably Numb
Bm A
Hello, Is there any body in there?
G D/F# Em Bm
Just nod if you can hear me, is there anyone at home?
A
Come on, now, I hear your feeling down,
G D/F# Em Bm
well, I can ease your pain, get you on your feet again.
A G D/F# Em
relax, I need soem information, first, just the basic facts,
Bm
Can you show me where it hurts
D A
There is no pain you are receding,
D A G/B
A distant ships smoke, on the horizon,
C G
You are only coming through in waves,
C G
Your lips move, but I can`t hear what your saying,
D A
When I was a child, I had a fever,
D A G/B
my hands felt just like, two ballons,
C G
Now I`ve got that feeling once again,
G C
I can`t explain, you would not understand,
G
This is not how I am,
A G/B C G D
I have become, comforatbly numb.
solo 1
E|---14vvvvvv-----12-14>15>14---------------------------------------------|
B|------------------------------15>17vvvvvvvvvv>15--15-14-----------------|
G|---------------------------------------------------------14-------------|
D|-------------------------------------------------------------1412vvvvvv-|
A|------------------------------------------------------------------------|
E|------------------------------------------------------------------------|
E|--14>12--14>(15)>14--------------------------------------------------------|
B|-----------------------15>17---------15--14--------------------------------|
G|---------------------------------------------14------------------/12vvvvvv-|
D|-------------------------------------------------1412--11--9--7------------|
A|---------------------------------------------------------------------------|
E|---------------------------------------------------------------------------|
E|-----------------------------------------------------------|
B|-----------------------------------------------------------|
G|---11--------------119---97vvvvv----9>7------7---9---11>12-|
D|----------14--12----------------------------9--------------|
A|-----------------------------------------------------------|
E|-----------------------------------------------------------|
E|---15-14-12---------------------------------------------|
B|------------15-12---------------------------------------|
G|------------------12------------------------------------|
D|---------------------12vvvvvvvv--109vvvvvvv---1097vvvvv-|
A|--------------------------------------------------------|
E|--------------------------------------------------------|
E|-------------------------------------------------------|
B|-------------------------------------------------------|
G|-11>(12)vvvvvvvv--9>(11)===(11)==>9>7------------------|
D|---------------------------------------7/97vvvvvvvvvvv-|
A|-------------------------------------------------------|
E|-------------------------------------------------------|
Bm A G D/F# Em
O.K., just a little pin prick, there`ll be no more (scream),
Bm
But you may feel a little sick. Can you stand up?
A
I do believe it`s working, good.
G D/F# Em
That`ll keep you going throught the show,
Bm
C`mon it`s time to go
D A
There is no pain you are receding,
D A G/B
A distant ships smoke on the horizon,
C G
You are only coming through in waves,
C G
Your lips move, but I can`t hear what your saying,
D A
When I was a child, I caught a fleeting glimpse,
D A G/B
Out of the corner of my eye,
C G
I turned to look, but it was gone,
C
I can not put my finger on it now,
G
The child is grown, the dream is gone,
A G/B C G D
and I___________________, have become comfortably numb.
solo
E|-------------------------------------------------------------|
B|-------------------------------------------------------------|
G|--7--9--9>(11)vvvvvv--9>(11)>9>7---7--9--9--7-------7vvvvvvv-|
D|---------------------------------9-------------9--9----------|
A|-------------------------------------------------------------|
E|-------------------------------------------------------------|
E|-------------------------------------------10----------------------------------|
B|--------10------10--12--12>(15)>12>10--12--------------------------------------|
G|---/11------11---------------------------------------7--9--9>(10)>9>7----------|
D|-----------------------------------------------------------------------9vvvvvv-|
A|-------------------------------------------------------------------------------|
E|-------------------------------------------------------------------------------|
E|------------------------------------------------------------------------|
B|----10>7-------7--------------------------------------------------------|
G|-----------9-------9---7-------------------------------7----------------|
D|--------------------------9vvvvvvvvvv--------7---7--9-----9>7---9vvvvvv-|
A|-----------------------------------------/9-----------------------------|
E|------------------------------------------------------------------------|
E|--9--9>(10)----7-------7-------------------------|
B|-------------------10-----10>(12)vvv----10>7-----|
G|-----------------------------------------------9-|
D|-------------------------------------------------|
A|-------------------------------------------------|
E|-------------------------------------------------|
E|-------7-----------------------------------------------------|
B|--7--7---10>7------------------------------------------------|
G|--------------9>(11)>9>7---9-7-------------------------------|
D|-------------------------9-----9-7---------------------------|
A|-----------------------------------9-8-7-5---5vvvvvvvvvvvvvv-|
E|-------------------------------------------7-----------------|
E|--------------------------7-----------------------------------------------|
B|------------------------7---10>7------------------------------------------|
G|--7-7-7vvvvvvv---9>(11)----------9>(11)>9>7---9-7-------------------------|
D|--------------------------------------------9-----9>7---------------------|
A|------------------------------------------------------97-5-7>5---5--7-7/9-|
E|----------------------------------------------------------------7---------|
E|----------------------------7----------------------------7-----------------|
B|--------------------------7---10--------7--------------7---10>7------------|
G|-------------7---7-9>(11)--------9>(11)---7--9--9>(11)----------9>(11)>9>7-|
D|--7-7-7--9>7---9-----------------------------------------------------------|
A|---------------------------------------------------------------------------|
E|---------------------------------------------------------------------------|
Друзья сайта
 
Пресса о Supermax!
Albums




 
 
 
 
 
 
 
 
 
 
 
 


Партнеры
 




Kurt Hauenstein и Supermax. Посвящается памяти музыканта. 2008 - 2018 Хостинг от uCoz