Регистрация Вход Приветствую Вас
Меню сайта
 
 
 
 
 
 
 
 
 
 
 
 
 
 
 


Яндекс цитирования
 
 




Coming Back To Life
BASS:
2m35s
G:--------------------------------------------|
D:--------------------------------------------|
A:----------3-3-3-3-3-3-3-3-3-3-3-3-3-3-3-3---|
E:------------------------------------------3-|
....shining sun

(a)
||-----------------------------------------------------------------
||---------------------------5-------------------------------------
||-3-3-3-3-3-3-3-3-3-3-3-3/7---73---------------------------------
||---------------------------------1-1-1-1-1-1-1-1-1-1-1-1-1-1-1-1-
^---------^
Lost in thought And lost in time (1st time only)
Outside the rain Fell dark and slow
-----------------| |-----------------| |-----------------||
-----------------| |-----------------| |-----------------||
-0-0-0-0-0-0-0-0-| |-----------------| |-----------------||
-----------------|^^^^^^^^^^^^^|-3-3-3-3-3-3-3-3-|^^^^^^|-1-1-1-1-1-1-1-1-||
^repeat this X2 ^
while the seeds of life and the seeds of change were planted
while I pondered on this dangerous & irresistible pastime X2
^^^^^ - this is continuous!
(b)
---------------------------------------------------------------------------
---------------------------------------------------------------------------
-0-0-0-0-0-0-0-0-----------------0-0-0-0-0-0-0-0-1-1-1-1-1-1-1-1-0-0-0-0-0-
-----------------1-1-1-1-1-1-1-1-------------------------------------------
I took... through our... I knew the... begun... And I...
---------------------------------------|
---------------------------------------|
-0-0-0-----------------3-3-3-3-3-3-3-3-|
-------3-3-3-3-3-3-3-3-----------------|
into the... sun...
Guitar Solo : Repeat (a) twice
Repeat (b)
There is a small bass riff done to lead onto the outro solo which I can`t
make out.
Outro Solo :
First time:
---------------------------------------------------------------------------
-------------------------5b6r5p3 5b6r5p3-----------------------------------
-3-3-3-3-3-3-3-3-3-3-3-3---------------------------------------------------
-----------------------------------------1-1-1-1-1-1-1-1-1-1-1-1-1-1-1-----
^done v quickly^
---------------------------------------------------------------------------
---------------------------------------------------------------------------
-0-0-0-0-0-0-0-0-----------------------------------------------------------
-----------------3-3-3-3-3-3-3-3-1-1-1-1-1-1-1-1-1-1-1-1-1-1-1-1-----------

Second time: repeat (a)
Do (b)
keep playing last position on (b) until the end of the song.

BASS:
2m35s
G:--------------------------------------------|
D:--------------------------------------------|
A:----------3-3-3-3-3-3-3-3-3-3-3-3-3-3-3-3---|
E:------------------------------------------3-|
....shining sun

(a)
||-----------------------------------------------------------------
||---------------------------5-------------------------------------
||-3-3-3-3-3-3-3-3-3-3-3-3/7---73---------------------------------
||---------------------------------1-1-1-1-1-1-1-1-1-1-1-1-1-1-1-1-

Друзья сайта
 
Пресса о Supermax!
Albums




 
 
 
 
 
 
 
 
 
 
 
 


Партнеры
 




Kurt Hauenstein и Supermax. Посвящается памяти музыканта. 2008 - 2018 Хостинг от uCoz