Регистрация Вход Приветствую Вас
Меню сайта
 
 
 
 
 
 
 
 
 
 
 
 
 
 
 


Яндекс цитирования
 
 




Corporal clegg
Riff 1:
~~~~~~~
-------------------------0----------------
-------------------------8----------------
-------------------------7----------------
-------------------------6----------------
-----2--3--2-------------7----------------
--0-----------3---0------0----------------
Bend (1/4)
A C D A
Corporal Clegg had a wooden leg.
N.C. E7+9
He won it in the war in nineteen forty-four.
A C D A
Corporal Clegg had a medal, too,
N.C. E7+9
In orange, red and blue. He found it in the zoo.
Riff 2:
Bm F#
-----------------------------------------------------
-----------------------------------------------------
-----------------------------------------------------
-----4--3--------------------------------------------
--2--------2--------2--------------------------------
--------------3--5-----0---2-2--2-2--2-2-------------
Bend (1/4)
Bm F#
Dear, oh dear, oh, are they really sad for me?
Bm F# D
Dear, oh, dear, oh, will they really laugh at me?
D G
Missus Clegg, you must be proud of him.
D G
Missus Clegg, another drop of gin?
A Ab G D A7 D G D A7 D
A C D A
Corporal Clegg, umbrella in the rain.
N.C. E7+9
He's never been the same. No one is to blame.
A C D A
Corporal Clegg, received his medal in a dream
N.C. E7+9
>From Her Majesty, the Queen. His boots were very clean.
D G
Missus Clegg, you must be proud of him.
D D
Missus Clegg, another drop of gin?
A Ab G
D A7
Corporal Clegg.
D
Corporal Clegg.
Вверх

Crying song
D D(-5)
We smiled and smiled
D D(-5)
We smiled and smiled
D G Em D
Laughter echoes in your eyes
D D(-5)
We climbed and climbed
D D(-5)
We climbed and climbed
D G Em D
Foot falls softly in the pines
BRIEF SOLO:
e---------------------------------------------
B---------------------------------------------
G---------------------------------------------
D-------------------------------------------0-
A---0---4---0---5---0---6---0---7---0---7-----
E---------------------------------------------
D D(-5)
We cry and cry
D D(-5)
We cry and cry
D G Em D
Sadness passes in a while
D D(-5)
We roll and roll
D D(-5)
We roll and roll
D G Em D
Help me roll away the stone
Друзья сайта
 
Пресса о Supermax!
Albums




 
 
 
 
 
 
 
 
 
 
 
 


Партнеры
 




Kurt Hauenstein и Supermax. Посвящается памяти музыканта. 2008 - 2018 Хостинг от uCoz