Регистрация Вход Приветствую Вас
Меню сайта
 
 
 
 
 
 
 
 
 
 
 
 
 
 
 


Яндекс цитирования
 
 




Dogs 2
Ebmaj7sus4
d-|--0---0---0---0--|--0---0---0---0--|--0---0---0---0--|--0---0---0---1--||
A-|--1---1---1---1--|--1---1---1---1--|--1---1---1---1--|--1---1---1---1--||
F-|--3---3---3---3--|--3---3---3---3--|--3---3---3---3--|--3---3---3---3-o||
C-|--3---3---3---3--|--3---3---3---3--|--3---3---3---3--|--3---3---3---3-o||
G-|-----------------|-----------------|-----------------|-----------------||
D-|-----------------|-----------------|-----------------|-----------------||
VERSE:
Dm9
You gotta be crazy, you gotta have a real need
Badd4
Gotta sleep on your toes and when you`re on the street
E7sus4
You gotta be able to pick out the easy meat with your eyes closed
Then moving in silently downwind and out of sight
Bbmaj7sus4
You gotta strike when the moment is right without thinking
Dm9
And after a while you can work on points of style
Badd4
Like the club tie and the firm handshake
A certain look in the eye and an easy smile
E7sus4
You have to be trusted by the people that you lie to
Ebmaj7sus4
So that when they turn their backs on you
You`ll get the chance to put the knife in
Dm9 Badd4 E7sus4 Ebmaj7sus4
SOLO 1:
Dm9
e-|--------|-12----------------13------12---|-12p10--10---------------|
B-|--------|--------------------------------|----------------------12--|
G-|----9---|--------------------------------|-------------------10-----|
D-|--------|--------------------------------|--------------------------|
A-|--------|--------------------------------|--------------------------|
E-|--------|--------------------------------|--------------------------|
e-|------------------------------------------|-----------------------------|
B-|--13--13---12---10---12-------------------|-----------------------------|
G-|-----------------------------10---9-------|---------9-10p9----9---------|
D-|--------------------------------------12--|-----12---------12---12p10p8-|
A-|------------------------------------------|-----------------------------|
E-|------------------------------------------|-----------------------------|
Bb(addEb)
e-|---------------------------------|--------------------------------------|
B-|-----------------------6--6b(8)--|-----6----6-----------------------11--|
G-|--------5--7---------------------|-------------------------------10-----|
D-|---------------8--8--------------|----------------------------12--------|
A-|---------------------------------|--------------------------------------|
E-|---------------------------------|--------------------------------------|
e-|-13--13-12----10--10--------13---|-----12---10---------------------------|
B-|---------------------------------|------------------13-----10------------|
G-|---------------------------------|-------------------------------12b(14)-|
D-|---------------------------------|---------------------------------------|
A-|---------------------------------|---------------------------------------|
E-|---------------------------------|---------------------------------------|
E7sus4
e-|-------------------------------|----------------------------------------|
B-|-------------------------------|----------------------------------------|
G-|------12--10--9------10p9------|----------------------------------------|
D-|---------------------------12--|/14-------12--11-----12--/--14----------|
A-|-------------------------------|------------------------------------12--|
E-|-------------------------------|----------------------------------------|
e-|----------------------------------------|
B-|----------------------------------------|
G-|----------------------------------------|
D-|-----------------11---11--12---12--14---|
A-|--12-----12--14-------------------------|
E-|----------------------------------------|
e-|---------------------------------------------------------------|
B-|---------------------------------------------------------------|
G-|-9--10p9--10--12---12-12b(14)---14-14b(16)---14-14b(16)--(17)--|
D-|---------------------------------------------------------------|
A-|---------------------------------------------------------------|
E-|---------------------------------------------------------------|
Emaj7sus4
e-|-----------------|------------------------|-13--13--12---11--10----------|
B-|-----------------|------------------------|----------------------13---12-|
G-|-------15----13--|-12----10--10--10---10--|------------------------------|
D-|-----------------|------------------------|------------------------------|
A-|-----------------|------------------------|------------------------------|
E-|-----------------|------------------------|------------------------------|
Друзья сайта
 
Пресса о Supermax!
Albums




 
 
 
 
 
 
 
 
 
 
 
 


Партнеры
 




Kurt Hauenstein и Supermax. Посвящается памяти музыканта. 2008 - 2018 Хостинг от uCoz