Регистрация Вход Приветствую Вас
Меню сайта
 
 
 
 
 
 
 
 
 
 
 
 
 
 
 


Яндекс цитирования
 
 




Dogs 3
Dm9
e-|---------------------------------|-----------------------------|
B-|--11--10-------------------------|-----------------------------|
G-|-----------13--12--10---10b(12)--|------------------------r10--|
D-|---------------------------------|-----------------------------|
A-|---------------------------------|-----------------------------|
E-|---------------------------------|-----------------------------|
e-|-------------------------||
B-|-------------------------||
G-|-b(12)-----r109---------||
D-|-------------------------||
A-|-------------------------||
E-|-------------------------||
VERSE:
Dm9
You`ve gotta keep one eye looking over your shoulder
Badd4
You know it`s gonna get harder, harder and harder as you get older
E7sus4
And in the end you`ll pack up and fly down south, hide your head in the
sand
Ebmaj7sus4 Dm9
Just another sad old man, all alone and dying of cancer
Badd4 E7sus4 Ebmaj7sus4 Dm

C Dm C Dm Bb F Eb F Eb Dm Dm9 C7 Dm A F Em
Start of Solo #2:(Double Tracked - both guitar parts)
C
e-|--12b(13)---|--12----------------|----------12-12b(13)--15-12b(13)--12---|
B-|--13b(15)---|--13----------------|----------13-13b(15)--17-13b(15)--13---|
G-|------------|--------------------|---------------------------------------|
D-|------------|--------------------|---------------------------------------|
A-|------------|--------------------|---------------------------------------|
E-|------------|--------------------|---------------------------------------|
Dm C
e-|-12b(13)---------|------------12b(13)--------|--12----------------|
B-|-13b(15)---------|------------13b(15)--------|--13----------------|
G-|-----------------|---------------------------|--------------------|
D-|-----------------|---------------------------|--------------------|
A-|-----------------|---------------------------|--------------------|
E-|-----------------|---------------------------|--------------------|
Dm
e-|----------12-12b(13)--15-12b(13)--12---|-12b(13)------------|
B-|----------13-13b(15)--17-13b(15)--13---|-13b(15)------------|
G-|---------------------------------------|--------------------|
D-|---------------------------------------|--------------------|
A-|---------------------------------------|--------------------|
E-|---------------------------------------|--------------------|
C Bb
e-|--12b(13)------12---------10p8--|--10------------|
B-|--13b(15)------13---------11p10-|--11------------|
G-|--------------------------------|----------------|
D-|--------------------------------|----------------|
A-|--------------------------------|----------------|
E-|--------------------------------|----------------|
e-|-10b(12)------12b(13)---(12)r10p8--|--10------------|
B-|-11b(13)------13b(15)---(13)r11p10-|--11------------|
G-|-----------------------------------|----------------|
D-|-----------------------------------|----------------|
A-|-----------------------------------|----------------|
E-|-----------------------------------|----------------|
F
e-|-10b(12)-------12b(13)---13b(15)----------|-----15b(17)--------17b(18)r17-|
B-|-11b(13)-------13b(15)---15b(17)------13--|--13-16b(18)--------18b(20)r18-|
G-|--------------------------------------14--|--14---------------------------|
D-|------------------------------------------|-------------------------------|
A-|------------------------------------------|-------------------------------|
E-|------------------------------------------|-------------------------------|
Eb F
e-|-13b(15)r13-------------|------------15b(17)------------17b(18)r17----|
B-|-15b(16)r15-11----------|--13-----13-16b(18)------------18b(20)r18----|
G-|------------12----------|--14-----14----------------------------------|
D-|------------------------|---------------------------------------------|
A-|------------------------|---------------------------------------------|
E-|------------------------|---------------------------------------------|
Друзья сайта
 
Пресса о Supermax!
Albums




 
 
 
 
 
 
 
 
 
 
 
 


Партнеры
 




Kurt Hauenstein и Supermax. Посвящается памяти музыканта. 2008 - 2018 Хостинг от uCoz