Регистрация Вход Приветствую Вас
Меню сайта
 
 
 
 
 
 
 
 
 
 
 
 
 
 
 


Яндекс цитирования
 
 




Dogs 4
Eb
e-|-13b(15)r13---------etc..----||
B-|-15b(16)r15-11------etc..----||
G-|--------------------etc..----||
D-|--------------------etc..----||
A-|--------------------etc..----||
E-|--------------------etc..----||
INTERLUDE:
Fig A
|------x-2------2-2-2-----x-2--x--2-2-----x-2-----2-2------x-2-----2-2----|
|------x-3--x---3-3-3-----x-3--x--3-3-----x-3--x--3-3------x-3--x--3-3----|
|------x-0--x-----0-------x-0--x----0-----x-0--x----0------x-0--x--0------|
|------x-2--x-------------x-2--x----------x-2--x-----------x-2--x---------|
|------x-2----------------x-2-------------x-2--------------x-2--x---------|
|----0------------------0---------------0----------------0----------------|
End Figure A
|----x-2------2-2-2-----x-2----2-2-----x-2----2-2------x-2----2-2-------|
|----x-3--x---3-3-3-----x-3-x--3-3-----x-3-x--3-3------x-3-x--3-3-------|
|----x-0--x-----0-------x-0-x----0-----x-0-x----0------x-0-x--0---------|
|----x-2--x-------------x-2-x----------x-2-x-----------x-2-x------------|
|----x-2----------------x-2------------x-2-------------x-2-x------------|
|--0------------------0--------------0---------------0------------------|
PM PM
|--0-x--2------0-x--3----0--0------------------------------------------|
|--1-x--3---x--1-x--3----0--0------------------------------------------|
|--0-x--0---x--0-x--0----5--4---4-------------4--------4---------------|
|--3-x--2---x--3-x--2----5--4---4-----------4---4----4---4-------------|
|--3-x--2------3-x--2-----------2---------2--------------------0-------|
|---------------------------------2-0--------------3-----------------0-|
Start of Solo #3
~~~~~~~~~~~~~~~~~~~~ ~~~~ ~~~
~~~~~
|-12----------------------19-----20b--20-20-20----19p18h19------14pb--(14)-|
|------------------------x------------------------------------x------------|
|-----------------------x------------------------------------x-------------|
|----------------------x---------------------------------------------------|
|--------------------------------------------------------------------------|
|--------------------------------------------------------------------------|
|-------------------------------|
|-12pb1/2----9---7-6------------|
|-12pb1/2----9---7-6------------|
|-------------------------------|
|-------------------------------|
|-------------------------------|

VERSE:
w/rhtm fig A
Dm C Dm C Dm C Dm C
Dm C
And when you lose control you`ll reap the harvest you have sown
Dm C Dm C Dm Bb A
And as the fear grows the bad blood slows and turns to stone
Dm C Dm C Dm
C Dm
And it`s too late to lose the weight you used to need to throw around
C Bb C Bb C Dm A
So have a good drown as you go down all alone
F A Dm
Dragged down by the stone
Bb7
[Tempo I]
Dm9
Gotta admit that I`m a little bit confused
Badd4
Sometimes it seems to me as if I`m just being used
E7sus4
Gotta stay awake, gotta try and shake off this creeping malaise
Ebmaj7sus4
If I don`t stand my own ground how can I find my way out of the maze
Dm9
Deaf, dumb and blind you just keep on pretending
Badd4
That everyone`s expendable and noone has a real friend
E7sus4
And it seems to you the thing to do would be to isolate the winner
Ebmaj7sus4
And everything`s done under the sun
And you believe at heart everyone`s a killer
Dm C Dm C Dm C Dm Bb F E F E Dm
[Half tempo]
F C Dm
Who was born in a house full of pain
C F C Dm
Who was trained not to spit in the fan
C F C Dm7
Who was told what to do by the man
C F C Dm
Who was broken by trained personnel
C F C Dm7
Who was fitted with collar and chain
C F C Dm
Who was given a pat on back
C F C Dm
Who was breaking away from the pack
C F C Dm
Who was only a stranger at home
C F C Dm
Who was ground down in the end
C F C Dm
Who was found dead on the phone
C F C Bb A
Who was dragged down by the stone
F A7 Dm9
Who was dragged down by the stone Figure A
Друзья сайта
 
Пресса о Supermax!
Albums




 
 
 
 
 
 
 
 
 
 
 
 


Партнеры
 




Kurt Hauenstein и Supermax. Посвящается памяти музыканта. 2008 - 2018 Хостинг от uCoz