Регистрация Вход Приветствую Вас
Меню сайта
 
 
 
 
 
 
 
 
 
 
 
 
 
 
 


Яндекс цитирования
 
 




Dogs of war
Cm
Dogs of war, and men of hate,
With no cause, we don't disciminate,
Discovery, is to be disowned,
Our currency, is flesh and bone,
Ebm
Hell opened up, and put on sale,
Gather 'round and haggle,
Cm
For hard cash we lie, and decieve,
But even our masters dont know the webs we weave,
Ab
One world, it's a battleground,
Fm
One world, and we will smash it down,
Cm
One world, one world
Cm
Invisable transfers, long distance calls,
Hollow laughter, in marble halls,
Steps have been taken, a silent uproar,
Has unleashed the dogs of war,
Ebm
You can't stop what has begun,
Signed, sealed, they deliver olivion,
Cm
We all have a dark side, to say the least,
And dealing in death is the nature of the beast
Ab
One world, it's a battleground,
Fm
One world, and we will smash it down,
Cm
One world, one world,

SOLO:
e--------------------------------------------------------
B--------------------------------------------------------
G---10h12===(12)p10p8-------------------------8------8---
D----------------------10vvvvv--10vvvvvv-10\-----10------
A--------------------------------------------------------
E--------------------------------------------------------
e-------------------------------------------------
B---/13--13vvvvvv--13vvvv--13vvv--13p11h13b(16)---
G-------------------------------------------------
D-------------------------------------------------
A-------------------------------------------------
E-------------------------------------------------
e------------------------------
B------------------------------
G---3--------------------------
D------5-------------1-----1---
A---------3--3--3p1-----3------
E------------------------------
e------------------------------------------------11-------------------------
B------11-------11-------11---11--------------------------------------------
G--10b(11)--10b(11)--10b(11)--10p8------10b(11)------10------8h10--10--10p8-
D-----------------------------------10-------------------10-----------------
A---------------------------------------------------------------------------
E---------------------------------------------------------------------------
e----------------------------
B----------------------------
G-------10p0--------------8--
D---10--------10vvvvvvvv-----
A----------------------------
E----------------------------
e-------------------------------------------------------------
B-------7--9--9b(11)--9b(11)--9p7-----7--9--9b(10)r9p7-----7--
G---/8-----------------------------8--------------------8-----
D-------------------------------------------------------------
A-------------------------------------------------------------
E-------------------------------------------------------------
e--------------11--11--------------------------------------------------------
B--/11--14p11----------14p11-------------------------------------------------
G-----------------------------13p11------11--13b(14)r13p11------13--------11-
D----------------------------------13---------------------13------13vvvv-----
A----------------------------------------------------------------------------
E----------------------------------------------------------------------------
e---------------------------11p8--8--11p8--11p8--8---------11--8--8--8--11p8-
B-------------13vvv--13p11--------------------------11--8--------------------
G---13\/---------------------------------------------------------------------
D----------------------------------------------------------------------------
A----------------------------------------------------------------------------
E----------------------------------------------------------------------------
e---11b(13)b(14)--11--8--11--10p8--12--8vvvvvv\-
B-----------------------------------------------
G-----------------------------------------------
D-----------------------------------------------
A-----------------------------------------------
E-----------------------------------------------
e------11--13vvvvvvvvp11--13--13--13--11------11----------11-----------------
B--13-------------------------------------13------13vvvv------13b(16)vvvvvv\-
G----------------------------------------------------------------------------
D----------------------------------------------------------------------------
A----------------------------------------------------------------------------
E----------------------------------------------------------------------------
Друзья сайта
 
Пресса о Supermax!
Albums




 
 
 
 
 
 
 
 
 
 
 
 


Партнеры
 




Kurt Hauenstein и Supermax. Посвящается памяти музыканта. 2008 - 2018 Хостинг от uCoz