Регистрация Вход Приветствую Вас
Меню сайта
 
 
 
 
 
 
 
 
 
 
 
 
 
 
 


Яндекс цитирования
 
 




Dogs of war 2
e---------------------------------------8------------------------------------
B------------------------------------------/13vvvvvvv--10b(11)r10------------
G--------8--10--10p8------8--10--10h12-----------------10b(11)r10------8-----
D---/10---------------10-------------------------------------------10-----10-
A----------------------------------------------------------------------------
E----------------------------------------------------------------------------
REPEAT 2ND VERSE(with diff lyrics)
SAX SOLO
VERSE:
Cm
e--------------------------------------------------------------------------
B---------------------11---------------------------------------------------
G-----------------10b(11)r10p8-----------------8vvvvvvvvvvvv---------------
D-------------------------------------------------------------10vvvvvvvvv--
A--------------------------------------------------------------------------
E--------------------------------------------------------------------------
The dogs of war won't negotiate.
e------------------------------------------------8-------------------------
B---------------------------------------------8-----/13vvvvvvp11--13b(16)--
G--------------------------------------------------------------------------
D--------------------------------------------------------------------------
A--------------------------------------------------------------------------
E--------------------------------------------------------------------------
The dogs of war won't capitulate.
e-------------------------------------------------------------------
B-------------------------------------------------------------------
G-------------------(11)r10p8---------------------------------------
D-------------------------------------------------------------------
A-------------------------------------------------------------------
E-------------------------------------------------------------------
They will take, and you will give.
Ebm
e-------------------------------------------------------------------------
B----------------------------------------------------------/11\/\/p9p7----
G-------------------------------------------------------------------------
D-------------------------------------------------------------------------
A-------------------------------------------------------------------------
E-------------------------------------------------------------------------
And you must die, so that they may live. You can
e--------------------------11------------------------------------
B-----------------9b(11)--------7--------------------------------
G------------------------------------8vvvvvvvv-------------------
D----------------------------------------------------------------
A----------------------------------------------------------------
E----------------------------------------------------------------
knock at any door, but wherever you go
e-----------------------10-----------------
B--------------------9>(10)>9>(10)--7------
G--------------------------------------8\--
D------------------------------------------
A------------------------------------------
E------------------------------------------
you know they've been there before.
Cm
e--------------------------------------------------------------------
B--------------------------------------------------------------------
G--------------------------------------------------------------------
D--10vvvv\---------------------8tr10---------------------------------
A--------------------------------------------------------------------
E--------------------------------------------------------------------
But winners can lose, things can get strained,
e-------------------------------------------------------------------------
B------------------11-----------------------------------------------------
G--------------10b(12)=====r10p8-------------------------10b(12)---10--8\-
D-------------------------------------------------------------------------
A-------------------------------------------------------------------------
E-------------------------------------------------------------------------
But whatever you change you know the dogs remain.
Ab7 Fm G7sus4
e--------------------------------------------------------------------
B--6--4--------------------------------------------------------------
G--6--5--------------------------------------------------------------
D---------6----------------------------------------------------------
A--------------------------------------------------------------------
E--------------------------------------------------------------------
One world, it's a рок-группа The Slade . One world, we will smash it down.
Cm
e---------------------------------------------------------------------------
B---------------------------------------------------------------------------
G-----------12>(15)====>12vvvvvv------------10b(12)r(11)r10----------8------
D---------------------------------------------------------------8h10---10vv-
A---------------------------------------------------------------------------
E---------------------------------------------------------------------------
One world. One world.
e------------------------------------------------------------
B----------11vvvvvvvvv---11----------------------------------
G------10b(12)vvvvvvvv-------10b(11)r10p8--------------------
D------------------------------------------10-----8tr10------
A------------------------------------------------------------
E------------------------------------------------------------
One world
e---------------------------------
B----------11-11b(13)vvvvvvvvv\---
G---------------------------------
D---------------------------------
A---------------------------------
E---------------------------------
One world
Друзья сайта
 
Пресса о Supermax!
Albums




 
 
 
 
 
 
 
 
 
 
 
 


Партнеры
 




Kurt Hauenstein и Supermax. Посвящается памяти музыканта. 2008 - 2017 Хостинг от uCoz