Регистрация Вход Приветствую Вас
Меню сайта
 
 
 
 
 
 
 
 
 
 
 
 
 
 
 


Яндекс цитирования
 
 




Dramatic Theme
Intro Main Riff
G-----------|-------------------------------------------------------------------
D-----------|-----17----------15----------17----------15----------17------------
A-----------|-------------------------------------------------------------------
E-----15~~--|---------15--15------15--15------15--15------15--15------15-15~~~--
Variation
G----------------------------17p16------------------------
D----17----------19-----------------------17--------------
A---------------------------------------------------------
E--------15--15------15--15---------15~~------15--15--15--
Друзья сайта
 
Пресса о Supermax!
Albums




 
 
 
 
 
 
 
 
 
 
 
 


Партнеры
 




Kurt Hauenstein и Supermax. Посвящается памяти музыканта. 2008 - 2018 Хостинг от uCoz