Регистрация Вход Приветствую Вас
Меню сайта
 
 
 
 
 
 
 
 
 
 
 
 
 
 
 


Яндекс цитирования
 
 




Echoes (4 вариант)
Bbmi7 A
B B B
E --12-(13)--------------------------11-(12)------------------11-(12)-
B --------------------------------------------------------------------
G --------------------------------------------------------------------
D --------------------------------------------------------------------
A --------------------------------------------------------------------
E --------------------------------------------------------------------
G#sus4 G#
E --11-------------------------------------------R--------------------
B --------------------------------------------(14)13------------------
G ---------------------------------------------------13---S-----------
D ------------------------------------------------------13\11-10------
A ---------------------------------------------------------------11---
E --------------------------------------------------------------------
C#mi
E ----------------------------------
B ----------------------------------
G ----------------------------------
D -11-------------------------------
A ----------------------------------
E ----------------------------------

C#m
Overhead the albatross
B
Hangs motionless upon the air
F#m
And deep beneath the rolling waves
G#
In labyrinths of coral caves
C#m
The echo of a distant time
B
Comes willowing across the sand
F#m G#
And everything is green and submarine
C#
And no-one showed us to the land
G#
And no-one knows the wheres or whys
F#m
But something stirs and something tries
G# A
And starts to climb towards the light
C# walkdown to A, C# walkdown to A, C# walkdown to A E B C
C#m
Strangers passing in the street
B
By chance two separate glances meet
F#m G#
And I am you and what I see is me
C#m
And do I take you by the hand
B
And lead you through the land
F#m G#
And help me understand the best I can
C#
And no-one calls us to move on
G#
And no-one forces down our eyes
F#m
And no-one speaks and no-one tries
G# A
And no-one flies around the sun
C# walkdown to A, C# walkdown to A, C# walkdown to A E B C
C#m B
Cloudless everyday you fall upon my waking eyes
F#m G#
Inviting and inciting me to rise
C#m
And through the window in the wall
B
Come streaming in on sunlight wings
F#m G#
A million bright ambassadors of morning
C#
And no-one sings me lullabies
G#
And no-one makes me close my eyes
F#m
So I throw the windows wide
G A
And call to you across the sky
C# walkdown to A, C# walkdown to A, C# walkdown to A E B C
---------------
Друзья сайта
 
Пресса о Supermax!
Albums




 
 
 
 
 
 
 
 
 
 
 
 


Партнеры
 




Kurt Hauenstein и Supermax. Посвящается памяти музыканта. 2008 - 2018 Хостинг от uCoz