Регистрация Вход Приветствую Вас
Меню сайта
 
 
 
 
 
 
 
 
 
 
 
 
 
 
 


Яндекс цитирования
 
 




Echoes (5 вариант)
Chorus Walkdown:
C# A
e-----------------------------------------------------------------------
B-----------------------------------------------------------------------
G-----------------------------------------------------------------------
D-------------------------------------------------1-2-1-2-4-6-4-6-7-6---
A----------4----------------4-3-2-1-0---0-2-4-2-4---------------------4-
E-------------------------------------4---------------------------------
C# A
e-----------------------------------------------------------------------
B-----------------------------------------------------------------------
G-----------------------------------------------------------------------
D-------------------------------------------------1-2-1-2-------6-7-6---
A----------4----------------4-3-2-1-0---0-2-4-2-4---------------------4-
E-------------------------------------4---------------------------------
C# A E
e----------------------------------------------------------------------
B----------------------------------------------------------------------
G----------------------------------------------------------------------
D-------------------------------------------------1-2-1-2-1---------2--
A----------4----------------4-3-2-1-0---0-2-4-2-4-----------4-32-------
E-------------------------------------4--------------------------0-----
B--C--back to verse
Друзья сайта
 
Пресса о Supermax!
Albums




 
 
 
 
 
 
 
 
 
 
 
 


Партнеры
 




Kurt Hauenstein и Supermax. Посвящается памяти музыканта. 2008 - 2018 Хостинг от uCoz