Регистрация Вход Приветствую Вас
Меню сайта
 
 
 
 
 
 
 
 
 
 
 
 
 
 
 


Яндекс цитирования
 
 




Eclipse (3 вариант)
INTRO:
D D/C Bb6(add#11)
Guitar 1
------------2----2-----------------0-----2---------------0--------
---------------3--------------3-------3---------------------3-----
--------2----------2-------------------------------------------0--
-----4---------------------4------------------------0-------------
--5---------------------3------------------------3----------------
----------------------------------------------1-------------------
Guitar 2
---------------------------------------------------------0--------
------------15---------------------15---------------15------15----
--------14-----14-------------14------14-----------------------0--
-----16------------16------16------------16------15---------------
--17--------------------15--------------------13------------------
------------------------------------------------------------------
A7
--------0-------------
-------------2--------
----------------0-----
-----2-------------2--
--0-------------------
----------------------

----------------------
--------14------14----
-------------------0--
-----0-------14-------
-12-------------------
----------------------
VERSES:
D D/C Bb6(add#11)
----2-------------2-------2-------0---------------------0----0----
-------3-----------------------------3----------------------------
------------2----------------2----------2----------0-------0---0--
---------------0--------------------------------3-----------------
-0---------------------3---------------------1--------------------
------------------------------------------------------------------

--------------------------------------------------------0---------
-----------15--------------------15----------------15------15-----
-------14-----14------------14------14-------------------------0--
----16------------16-----16------------16-------15----------------
-17-------------------15---------------------13-------------------
------------------------------------------------------------------
A7
--------------------------
-------------------2----o-
--------2-----------------
-----0---------------2----
--0----------0----------o-
--------------------------
Play 3 Times
--------------------------
--------14-------14-----o-
------0------14------0----
--------------------------
--12--------------------o-
--------------------------
D D/C Bb6(add#11)
----2-------------2-------2-------0---------------------0----0----
-------3-----------------------------3----------------------------
------------2----------------2----------2----------0-------0---0--
---------------0--------------------------------3-----------------
-0---------------------3---------------------1--------------------
------------------------------------------------------------------

--------------------------------------------------------0---------
-----------15--------------------15----------------0-------15-----
--------------14--------------------14-------------------------0--
------------------------------------------------15----------------
-0--------------------15---------------------13-------------------
------------------------------------------------------------------
A7
--------------------------
-------------------2----o-
--------2-----------------
-----0---------------2----
--0----------0----------o-
--------------------------
Play 3 Times
--------------------------
--------14-------14--14-o-
------0-------------------
--------------------------
--12---------0----------o-
--------------------------
D D/C Bb6(add#11)
-------------2---------------------0-------------------
--------3-------3-------------3-------3----------------
-----2-------------2-------2-------------2----------0--
--0----------------------------------------------3-----
------------------------3---------------------1--------
-------------------------------------------------------
Друзья сайта
 
Пресса о Supermax!
Albums




 
 
 
 
 
 
 
 
 
 
 
 


Партнеры
 




Kurt Hauenstein и Supermax. Посвящается памяти музыканта. 2008 - 2018 Хостинг от uCoz