Регистрация Вход Приветствую Вас
Меню сайта
 
 
 
 
 
 
 
 
 
 
 
 
 
 
 


Яндекс цитирования
 
 




Fat Old Sun (3 вариант)
G|-----------7------------|-----------5--5h7--5-----|--5---5-----------------|
A|--------7-----7---------|------5h7-------------7--|------------------------|
D|--5---------------5--7--|--8----------------------|-------------3---3--5---|
E|------------------------|-------------------------|------------------------|
G|-------------------|-----------------7--9p7-------|------------------------|
A|--5---5-----5---5--|--5-----7--7h9-----------9p7--|--------7---------------|
D|---------5---------|------------------------------|--5---------5--5--5--7--|
E|-------------------|------------------------------|------------------------|
"And if you.."
G|-----------------|-------------------|----/12---11----|--9-----------------|
A|-----------------|--------------5h7--|-5-----------12-|-----10--12--9------|
D|--8-----8---7--5-|----------5h7------|----------------|----------------5---|
E|------8----------|-8-----8-----------|----------------|--------------------|
G|------------------------|-------------------|------------------------------|
A|------------------------|-------------------|----------------------2---4---|
D|--3-------3--3----3-----|--2--------2--2----|--0-------2---3---5-----------|
E|------------------------|-------------------|------------------------------|
G|-------------------|--------------/5----/5---|----------4--4--4--4---------|
A|--5-----5------5---|-------------------------|-----------------------------|
D|-------------------|---3----3----------------|--2----------------------2---|
E|-------------------|-------------------------|-----------------------------|
G|--------------------------|------------------------------|-----------------|
A|-----------------------2--|-----------------2--3--2------|---5-------------|
D|--0--------0--2--3--5-----|--5--------5--5-----------5---|-----------------|
E|--------------------------|------------------------------|-----------------|
G|------------|-------------/10-10-10-10-10-10-10-|---------/7-7-7-7-7-7-7-7-|
A|------------|-----------------------------------|--------------------------|
D|-5--5--5--7-|-8--8-8-8-8------------------------|-8-8-8--8-----------------|
E|------------|-----------------------------------|--------------------------|
To Guitar Solo.
Друзья сайта
 
Пресса о Supermax!
Albums




 
 
 
 
 
 
 
 
 
 
 
 


Партнеры
 




Kurt Hauenstein и Supermax. Посвящается памяти музыканта. 2008 - 2018 Хостинг от uCoz