Регистрация Вход Приветствую Вас
Меню сайта
 
 
 
 
 
 
 
 
 
 
 
 
 
 
 


Яндекс цитирования
 
 




GOODBYE BLUE SKY
TUNING: D A D G B E
---------------------------------------------------
---------------------------------------------------
-------0----------------0----------------0---------
---4-------4---4----4-------4---4----4-------4---4-
-----5-------5--------5-------5--------5-------5---
-0-------0--------0-------0--------0-------0-------
---------------------------------
---------------------------------
------0------------5---5-------4-
---4----4-2--------5---5-------4-
-----5------3p2--0---------------
-0-------------------0---0---0---
---------------------------------------------------------------------
---------------------------------------------------------------------
-4----------5---5-------4--4----------5---5-------4----4------4-5-6--
-4----------5---5-------4--4----------5---5-------4----4------4-5-6--
---------------------------------------------------------------------
---0-0-0--0---0---0---0----0-0-0-0--0---0---0---0----0---0-----------
Repeat x3
------------------------------------------------------------------------
------------------------------------------------------------------------
-----0-------0--------0-------0---.---11---9-------7------6---6h7p6p7---
---4---4---4---4----4---4---4---4-.-------------------------------------
-5-------5--------5-------5---------------------------------------------
------------------------------------0----0---0---0----0-0---0---------0-
-----------------------------------
-----------------------------------
-----0-------0--------0-------0---.
---4---4---4---4----4---4---4---4-.
-2-------2--------2-------2--------
-----------------------------------
--------------------------------------------------------------------
--------------------------------------------------------------------
---5---5---5---5--4------------------5---5---5---5--4---------------
---5---5---5---5--4------------------5---5---5---5--4---------------
--------------------------------------------------------------------
-0---0---0---0----0---0---0---0----0---0---0---0----0---0---0---0---
--------------------------------------------------------------------
--------------------------------------------------------------------
---5---5-------5------4---4-4-4-4------2---2-2-2-2------0---0-0-0-0-
---5---5-------5------4---4-4-4-4------2---2-2-2-2------0---0-0-0-0-
--------------------------------------------------------------------
-0---0---0---0----0---0---0---0----0---0---0---0----0---0---0---0---
--------------------------------------------------------------------
--------------------------------------------------------------------
---------------------------------------0-------0--------0-------0---
-----4---4-4-4-4----2---2-----0------4---4---4---4----4---4---4---4-
-----4---4-4-4-4----2---2---4---4--2-------2--------2-------2-------
-0-0---0---0------0---0---0-----------------------------------------
Repeat x2
------------------------------------------------------------------------
------------------------------------------------------------------------
-------0----------------0---------.---11---9-------7------6---6h7p6p7---
---4-------4---4----4-------4---4-.-------------------------------------
-----5---5---5--------5---5---5-----------------------------------------
-0----------------0-----------------0----0---0---0----0-0---0---------0-
-----------------------------------
-----------------------------------
-----0-------0--------0-------0---.
---4---4---4---4----4---4---4---4-.
-2-------2--------2-------2--------
-----------------------------------
Друзья сайта
 
Пресса о Supermax!
Albums




 
 
 
 
 
 
 
 
 
 
 
 


Партнеры
 




Kurt Hauenstein и Supermax. Посвящается памяти музыканта. 2008 - 2018 Хостинг от uCoz