Регистрация Вход Приветствую Вас
Меню сайта
 
 
 
 
 
 
 
 
 
 
 
 
 
 
 


Яндекс цитирования
 
 




GRANTCHESTER MEADOWS
VERSE 1:
E A/E E
e-------------------------------------------------------------------
B-------------------------------------------------------------------
G---------4----6----7------6----4----2----6------6----4----4--------
D---------6----7----9------7----6----4----7------7----6----6--------
A-------------------------------------------------------------------
E-------------------------------------------------------------------
--------------------------------------------------------------------
--5^7^5---4^5^4-----------------------------------------------------
------------------6^8^6---4^6^4---------4-------4---6-------7-------
----------------------------------------6-------6---7-------9-------
--------------------------------------------------------------------
--------------------------------------------------------------------
I - cy wind of
A/E E
--------------------------------------------------------------------
--------------------------------------------------------------------
--6-------4-------2-------6---------6---4-----------4-------2---4---
--7-------6-------4-------7---------7---6-----------6-------4---6---
--------------------------------------------------------------------
--------------------------------------------------------------------
night be gone, this is not your do- main
--------------------------------------------------------------------
----------4^5^4-----------------------------------------------------
-(4)--------------6^8^6---4^6^4-----4---4-------6-----------7-------
-(6)--------------------------------6---6-------7-----------9-------
--------------------------------------------------------------------
--------------------------------------------------------------------
In the sky a
A/E E
--------------------------------------------------------------------
--------------------------------------------------------------------
--6-------4-------2-------6---6----(6)--4---------------------------
--7-------6-------4-------7---7----(7)--6---------------------------
--------------------------------------------------------------------
--------------------------------------------------------------------
bird was heard to cry________
A
--------------------------------------------------------------------
--5^7^5---4^5^4---------------------5-------5---7-----------8-------
------------------6^8^6---4^6^4-----6-------6---7-----------9-------
--------------------------------------------------------------------
--------------------------------------------------------------------
3--------------------------------------------------------------------
Mist - y morn - ing
D/A
--------------------------------------------------------------------
--10------12--10----------8---------8---7-----------7-------5---7---
--11------12--11----------9---------9---7-----------7-------6---7---
--------------------------------------------------------------------
--------------------------------------------------------------------
--------------------------------------------------------------------
whis - per-ings and gen-tle stir - ring sounds
E
----------5^7^5-----------------------------------------------------
------------------9^10^9--7^9^7-------------------------------------
-(7)--------------------------------------------4---6-------7-------
-(7)--------------------------------------------6---7-------9-------
--------------------------------------------------------------------
--------------------------------------------------------------------
be- lied a
A/E E
--------------------------------------------------------------------
--------------------------------------------------------------------
--6-------4-------2-------6---------6-------4---4-----------2---4---
--7-------6-------4-------7---------7-------6---6-----------4---6---
--------------------------------------------------------------------
--------------------------------------------------------------------
death - ly si - lence that lay all a - round
Chorus:
Друзья сайта
 
Пресса о Supermax!
Albums




 
 
 
 
 
 
 
 
 
 
 
 


Партнеры
 




Kurt Hauenstein и Supermax. Посвящается памяти музыканта. 2008 - 2018 Хостинг от uCoz