Регистрация Вход Приветствую Вас
Меню сайта
 
 
 
 
 
 
 
 
 
 
 
 
 
 
 


Яндекс цитирования
 
 




HAVE A CIGAR 4
----------------------------------------------------------------------
----------------------------------------------------------------------
------------------------------------------------------(2)B(4)R(2)P0---
----------------------------------------------------------------------
----------------------------------------------------------------------
----------------------------------------------------------------------
_____ just knocked out. We

----------------------------------------------------------------------
----------------------------------------------------------------------
---------------------------------------2B(4)R(2)B(4)R(2)P0-2B(4)------
----------------------------------------------------------------------
----------------------------------------------------------------------
----------------------------------------------------------------------
heard about the sell - out. You've
w/Rhy. Fig. 3 w/Ryh. Fig. 6
------------------------------------------------------------------
------------------------------------------------------------------
gotta get an album out, you owe it to the people. We're
w/Rhy. Fig. 1 (4x)
----------------------------------------------------------------------
--------------------------------------------15------------------------
---------------------------------------(14)B(16)-----------R(14)------
----------------------------------------------------------------------
----------------------------------------------------------------------
----------------------------------------------------------------------
so happy, we can hard - ly count.

------------------------------------------------------------------
------------------------------------------------------------------

------------------------------------------------------------------
------------------------------------------------------------------
Ev'rybody else is just green_____

------------------------^--^--------------------------------------
--------------------(12)/14\12------------------------------------
--------------------(12)/14\12------------------------------------
------------------------------------------------------------------
------------------------------------------------------------------
------------------------------------------------------------------
_________________. Have_____ you seen the chart?
w/Rhy. Fig.3
------------------------------------------------------------------
------------------------------------------------------------------
It's a helluva start, it could be
w/Rhy. Fig. 6
------------------------------------------------------------------
------------------------------------------------------------------
made into a monster, if we all pull together as a
w/Rhy. Fig. 1 (2x)
----------------------------------------------------------------------
----------------------------------------------------------------------
------------------------------------------------------(2)B(4)R(2)P0---
----------------------------------------------------------------------
----------------------------------------------------------------------
----------------------------------------------------------------------
team.

------------------------------------------------------------------
------------------------------------------------------------------
And if we
w/Rhy. Fig. 7
----------------------------------------------------------------------
----------------------------------------------------------------------
tell you the name of the game, boy,
gtr 1 begins slight ad lib
----------------------------------------------------------------------
----------------------------------------------------------------------
we call it "riding the gra - vy train."

------------------------------------------------------------------
------------------------------------------------------------------

------------------------------------------------------------------
------------------------------------------------------------------

SOLO:
w/Rhy. Fig. 1 (7 1/2x)
------------------------------------------------------------------
---------------------15B(17)----------------------~~~~~~~~~~~~~~~~
------------------------------------------------------------------
------------------------------------------------------------------
------------------------------------------------------------------
------------------------------------------------------------------
----------------------------------------------------------------------
-----15B(17)---15----12-----------------------------------------------
-----------------------(14)B(16)-----(12)B(14)R(12)~~~~~~~~~~~~~~~~~~~
----------------------------------------------------------------------
----------------------------------------------------------------------
----------------------------------------------------------------------
------------------------12H15P12--15~~~~~~-------17B(19)---(19)---
---15B(17)~~~~~~~-------------------------------------------------
------------------------------------------------------------------
------------------------------------------------------------------
------------------------------------------------------------------
------------------------------------------------------------------
-(19)------15B(17)-R(15)-15--14---14--------------------------------
-------------------------------------15~~15~~12-15-----15B(17)-R(15)
--------------------------------------------------------------------
--------------------------------------------------------------------
--------------------------------------------------------------------
--------------------------------------------------------------------
------------------------------------------------------------------
P12-------------------------------------------------14-14--14-14--
-------(14)B(15)R(14)----14--12B---------12---------14-14--14-14--
------------------------------------14----------------------------
------------------------------------------------------------------
------------------------------------------------------------------
Друзья сайта
 
Пресса о Supermax!
Albums




 
 
 
 
 
 
 
 
 
 
 
 


Партнеры
 




Kurt Hauenstein и Supermax. Посвящается памяти музыканта. 2008 - 2018 Хостинг от uCoz