Регистрация Вход Приветствую Вас
Меню сайта
 
 
 
 
 
 
 
 
 
 
 
 
 
 
 


Яндекс цитирования
 
 




Hey you 3
______________________________________
4.
e------2-----2--------2--------2-----2----
B---2-----------3-----------2-----------3-
G---------4--------4-----4--------4-------
D------4-----------------------4----------
A-----------------------------------------
E-----------------------------------------
VERSE:(with Rhy. fig. 1)
Em add9
Hey, you
out there on the road,
Em add 9
always doing what your told,
Bm
can you help me?
Em add 9
Hey you,
out beyond the wall,
Em add 9
breaking bottles in the hall,
Bm
can you help me?
ELECTRIC:
e-------------------------------------------------------------------
B-------------------------------------------------------------------
G----4------5---6---7-----------------------------------------------
D----4------5---6---7-----------------------------------------7\----
A----2------3---4---5-----------------------------------------5\----
E-------------------------------------------------------------------
Hey you! Don't tell me there's no hope at
e---------------------------------------------------------------
B---------------------------------------------------------------
G---------7----5----------5-----5--5----5\4----4----------------
D----5----7----5----------5-----5--5----5\4----4----------------
A----5----5----3----------3-----3--3----3\2----2----------------
E----3----------------------------------------------------------
all______________. To - gether we stand,
e--------------------------------------------------
B--------------------------------------------------
G----2---------------------------------------------
D----2-----------------------2---------------------
A----0-----------------------2---------------------
E-------------------10\------0---------------------
divided we fall.
[segue to Is There Anybody Out There?]
Друзья сайта
 
Пресса о Supermax!
Albums




 
 
 
 
 
 
 
 
 
 
 
 


Партнеры
 




Kurt Hauenstein и Supermax. Посвящается памяти музыканта. 2008 - 2018 Хостинг от uCoz