Регистрация Вход Приветствую Вас
Меню сайта
 
 
 
 
 
 
 
 
 
 
 
 
 
 
 


Яндекс цитирования
 
 




If
-------0---------------0-----------------------------
-----0---0-----------0---0-------------0-------------
---1-------1---1---1-------1---1-----2---2-----------
-2-----------2---2-----------2-----1-------1---1---1-
---------------------------------2-----------2---2---
-----------------------------------------------------
-------------------0---------------0---------------2-
---0-------------0---0-----------0---0-----------3---
-2---2---------1-------1---1---1-------1---1---2-----
-------1---1-2-----------2---2-----------2---0-------
---------2-------------------------------------------
-----------------------------------------------------

---------------2---------------0---------------0-----
-3-----------3---3-----------0---0-----------0---0---
---2---2---2-------2---2---1-------1---1---1-------1-
-----0---0-----------0---2-----------2---2-----------
-----------------------------------------------------
-----------------------------------------------------

-----------2---------------2---------------0---------
---------3---3-----------3---3-----------0---0-------
---1---2-------2---2---2-------2---2---1-------1---1-
-2---0-----------0---0-----------0---2-----------2---
-----------------------------------------------------
-----------------------------------------------------
-----------------------------------------------------
-------2----------------2---------------0------------
-----4---4------------3---3-----------2---2----------
---3-------3---3----4-------4---4---1-------1---1----
-4-----------4--------------------2-----------2------
------------------2-----------2----------------------

repeat
do.
If I were a swan, I'd be gone...
If I were a train, I'd be late... and
If I were a good man,
I'd talk with you more often than I do.
If I were asleep, I could dream...
If I were afraid, I could hide... and
If I go insane,
Please don't put your wires in my brain.
-------------------------------------------------------------------------
-5////////9----9\\\\7-----------------5////////9----9\\\\7---------------
-------------------------------------------------------------------------
-------------------------------------------------------------------------
-------------------------------------------------------------------------
-------------------------------------------------------------------------
1/2
-------------------------------------------------------------------------
--5////////9----9b\\\\\7--------------5////////9----9\\\\7/////12\\\9\\\7
-------------------------------------------------------------------------
-------------------------------------------------------------------------
-------------------------------------------------------------------------
-------------------------------------------------------------------------
-------------------------------------------------------------------------
-5////////9--------------------------------------------------------------
-------------------------------------------------------------------------
-------------------------------------------------------------------------
-------------------------------------------------------------------------
-------------------------------------------------------------------------
If I were a moon, I'd be cool...
If I were a good man,
I'd understand the spaces between friends.
If I were alone, I would cry...
If I were with you, I'd be home, and dry, and
If I go insane,
Will you still let me join in with the game.
-------------------------------------------------------------------------
-5///////9----9\\\\7---5////7----5////////9------------------------------
-------------------------------------------------------------------------
-------------------------------------------------------------------------
-------------------------------------------------------------------------
-------------------------------------------------------------------------
-------------------------------------------------------------------------
-5///////9----9\\\\7---5////7--5///////9----9\\\\7---5////7--------------
-------------------------------------------------------------------------
-------------------------------------------------------------------------
-------------------------------------------------------------------------
-------------------------------------------------------------------------
-------------------------------------------------------------------------
-5///////9-8/9//////14\\\\\12--------5////////9----9\\\\7--7\\\\5--------
-------------------------------------------------------------------------
-------------------------------------------------------------------------
-------------------------------------------------------------------------
-------------------------------------------------------------------------
Repeat first verse, end on E chord.
Друзья сайта
 
Пресса о Supermax!
Albums




 
 
 
 
 
 
 
 
 
 
 
 


Партнеры
 




Kurt Hauenstein и Supermax. Посвящается памяти музыканта. 2008 - 2018 Хостинг от uCoz