Регистрация Вход Приветствую Вас
Меню сайта
 
 
 
 
 
 
 
 
 
 
 
 
 
 
 


Яндекс цитирования
 
 




INTERSTELLAR OVERDRIVE
e------------------------------------------------------------------0-----------
b--------------------------------------------------------------------0---------
g------------------------------------------------------------------------------
d------------------2-2----9-9-8-9-8--7-7-6-7-6-5-5-5-5-5-5---------------------
a-------------------------7-7-6-7-6--5-5-4-5-4-3-3-3-3-3-3-7-7-7-2-------------
E-12 slide to 0-0-0-0-0-0----------------------------------5-5-5-0-------------
^
bass enters on right side here
e-----------------------------------------------0-----12-12-11-12-11---
b-------------------------------------------------0---12-12-11-12-11---
g---------------------------------------------------0-12-12-11-12-11---
d------9-9-8-9-8--7-7-6-7-6-5-5-5-5-5-5---------------14-14-13-14-13---
a------7-7-6-7-6--5-5-4-5-4-3-3-3-3-3-3-7-7-7-2-------14-14-13-14-13---
E---------------------------------------5-5-5-0-------12-12-11-12-11---
^
I always like doing harmonics on 12 instead of 0, but Barrett..
e--10-10-9--10-9--8--8--8----s-u-12------12-12-11-12-11
b--10-10-9--10-9--8--8--8--s-l-p-12------12-12-11-12-11
g--10-10-9--10-9--9--9--9--l-i---13------12-12-11-12-11
d--12-12-11-12-11-10-10-10-o-d---14------14-14-13-14-13
a--12-12-11-12-11-10-10-10-w-e-t-14------14-14-13-14-13
E--10-10-9--10-9--8--8--8------o-12------12-12-11-12-11
^
Barrett decides this task (of chords)is too hard and get out before fucking
up
e--10-10-9--10-9--8--8--8----s-u-12---
b--10-10-9--10-9--8--8--8--s-l-p-12---
g--10-10-9--10-9--9--9--9--l-i---13---
d--12-12-11-12-11-10-10-10-o-d---14---
a--12-12-11-12-11-10-10-10-w-e-t-14---
E--10-10-9--10-9--8--8--8------o-12---
^
Do this while strumming and make so final chord comes when bass reaches E.
Bass line is just the bottom notes of the power chords that are used in the
beginning.
Друзья сайта
 
Пресса о Supermax!
Albums




 
 
 
 
 
 
 
 
 
 
 
 


Партнеры
 




Kurt Hauenstein и Supermax. Посвящается памяти музыканта. 2008 - 2018 Хостинг от uCoz