Регистрация Вход Приветствую Вас
Меню сайта
 
 
 
 
 
 
 
 
 
 
 
 
 
 
 


Яндекс цитирования
 
 




LEARNING TO FLY
rhythm figure: verse
v-- with bar
-----------/9\\7----0----2--2--
---3-------/10\8----0----3--3--
---0-------/9\\7----0----2--2--
---0----------------0----------
--------------------2----------
---3---------------------------
play fig 5 times. Lyrics start on third time.

chorus fig.
---------------------------------------------------
---5-----5-----5-----------------------------------
---5-----5-----5---------------------------5----7--
---5-----5-----5---------7----5----3----3--5----7--
---3-----3-----3----2----7----5----3----3--3----5--
-------------------------5----3----1----1----------

1st solo
--------------------------------15>14VVVVVV-------------------------------
--18>(20)vvvvvvvv\-----------------------------15>12--15>(17)vvvv--15>12--
----------------------14>(16)---------------------------------------------
--------------------------------------------------------------------------
--------------------------------------------------------------------------
--------------------------------------------------------------------------
----------------------------------------------------
---(15)>14>12\/-14>12-------------------------------
------------------------11>(12)===>11--9--9\7-------
-----------------------------------------------5\---
----------------------------------------------------
----------------------------------------------------

fills during the second verse;

...tips of my wings Unheeded ...
------------------------------------------------------------------------------
----------------------------15------------------------------------------------
-------------------14>(16)-------(16)>14>12--14--12\11>12---------------------
------------------------------------------------------------14vvvvvv----------
------------------------------------------------------------------------------
------------------------------------------------------------------------------

... of everything No navigator... ... find my way home....
-----------------14---14---15vvvvv-------------------------------15vvvvvvv--
----------------------------------------------------------------------------
-----------------14---14---16vvvvv--------------------------16--------------
----------------------------------------------------------------------------
----------------------------------------------------------------------------
----------------------------------------------------------------------------

... to stone
-----------------------------------------------
-----------------------------------------------
--------------(15)>14>12--12--14-12vvvvvvvvv---
-----------------------------------------------
-----------------------------------------------
-----------------------------------------------
C (B) A5 G5 F5
... learning to fly
----------------------------------------------------------
-----------------------------------8----------------------
----------------------------7>(9)------(9)>7--5>7--5------
----------------------------------------------------------
----------------------------------------------------------
----------------------------------------------------------

with chorus figure;
... determined to try...
-----------------------------------8---------/8vvvvvvv----
----5>(6)>5---------------------------10>8----------------
---------------------------------------------/9vvvvvvv----
----------------------------------------------------------
----------------------------------------------------------
----------------------------------------------------------

... circling skies... ...earthbound misfit....
v----v- w/ bar
------------------8----------------------------------------------------------
-----------------------------------------------------------------------------
---------------------7>(9)>7-5vvvvvv------------(9)>7>5--7vvvv\/\/\/-\5\4\2--
-----------------------------------------------------------------------------
-----------------------------------------------------------------------------
-----------------------------------------------------------------------------

---------------------------------------------------5----------
---/12>(13)vvvvvvvv------------------------------5---8--------
--------------------------7>(9)--7>9--7\5--7>(9)-------7>(9)--
--------------------------------------------------------------
--------------------------------------------------------------
--------------------------------------------------------------

----------------------------------------14VVVVVVVV----
------------------------------------------------------
----7>(9)>7>5---5-7>(9)vvvvvv\---12/14----------------
--------------7---------------------------------------
------------------------------------------------------
------------------------------------------------------
Друзья сайта
 
Пресса о Supermax!
Albums




 
 
 
 
 
 
 
 
 
 
 
 


Партнеры
 




Kurt Hauenstein и Supermax. Посвящается памяти музыканта. 2008 - 2018 Хостинг от uCoz