Регистрация Вход Приветствую Вас
Меню сайта
 
 
 
 
 
 
 
 
 
 
 
 
 
 
 


Яндекс цитирования
 
 




LEARNING TO FLY 2
C (B) A G F5
There's no sensation to compare with this, suspended animation...

chorus figure over;
...bliss
------------------------------
--------------------8-8-8-8---
---------5--7>(9)-------------
------------------------------
------------------------------
------------------------------

solo 2
------15\\-------15--------15--------15--------------------15-\--
--18>(20)\---18>(20)---18>(20)---18>(20)---18>(20)\----18>(20)\--
-------------------------------------------18>(19)\--------------
-----------------------------------------------------------------
-----------------------------------------------------------------
-----------------------------------------------------------------

-0---0-0--0-------------------0---0------------------------
-3/5-5-5--5--3----------------0---0------------------------
-----------------4--0--2>(3)----------4\2----------0-------
----------------------------------------------2>0-----2>0--
-----------------------------------------------------------
-----------------------------------------------------------

-------------------------------------------------
-------------------------------------------------
--12>(14)>12---14>(16)====>14>12vvvvv-------12---
----------------------------------------14-------
-------------------------------------------------
-------------------------------------------------

---------------------------------------------------------
------15----15----15------------15----15---15------------
--14>(16)--(16)-->14--12----14>(16)--(16)->14--12--------
----------------------------------------------------14---
---------------------------------------------------------
---------------------------------------------------------

---------------------------------------------------3vvvv-------5-------------
---15--15------15------------------------------/5----------5------5vvvvvv----
---12--12--14>(16)--------------------------0--------------------------------
---------------------16----12---12vvvvvv-------------------------------------
-----------------------------------------------------------------------------
-----------------------------------------------------------------------------

--------------------------------------------------------------------
--------------------------------------------------------------------
-------------------------------------------7------------------------
-----9\7--5------5--7>(8)--7--5-------7/9-----8\7>5------5vvvvvvv---
-------------7--------------------7-------------------7-------------
--------------------------------------------------------------------

--0----0--0--0--0-----------------------------------------------------
--3/5--5--5--3--0-----------------------------------------------------
--------------------2>(3)>2>0------2>(3)>2>0------0-2>(3)>2>0---------
-------------------------------2--------------2----------------2---0--
----------------------------------------------------------------------
----------------------------------------------------------------------
----------------------------------------------------
-----------------------15---------------------------
--(15)>14>12--14>(16)-------12>14---12vvvvvvvvvv----
----------------------------------------------------
----------------------------------------------------
----------------------------------------------------
Друзья сайта
 
Пресса о Supermax!
Albums




 
 
 
 
 
 
 
 
 
 
 
 


Партнеры
 




Kurt Hauenstein и Supermax. Посвящается памяти музыканта. 2008 - 2018 Хостинг от uCoz