Регистрация Вход Приветствую Вас
Меню сайта
 
 
 
 
 
 
 
 
 
 
 
 
 
 
 


Яндекс цитирования
 
 




LOST FOR WORDS
INTRO:
C
guitar one(capo 5) F Fsus2
e---------------------------------------------------
B----------------------1-------1--1--1--1--1--------
G-----------------0----0-------0--0--0--0--0--0--0--
D-----------------0----0h2-----2--2--------0--0--0--
A------------0h2------------------------------------
E---------3-----------------------------------------
guitar two (Rhythm figure 1)
e----------------------1----------------------------
B-----------------1----1-------1--1--1--1--1--1--1--
G-----------------0----0h2-----2--2--2--2--0--0--0--
D------------0h2------------------------------------
A---------3-----------------------------------------
E---------------------------------------------------
C F Fsus2
e---------------------------------------------------------------
B---------------------------------1--------1--1--1--1--1--------
G---0-------0--0--0----------0----0--------0--0--0--0--0--0--0--
D---0----0--0--0--------0----0----0h2------2--2--------0--0--0--
A---0h2-----2-----------0h2-------------------------------------
E--------------------3------------------------------------------
e---------------------------------1-----------------------------
B----------------------------1----1--------1--1--1--1--1--1--1--
G---0------------------------0----0h2------2--2--2--2--0--0--0--
D---0h2-----------------0h2-------------------------------------
A--------------------3------------------------------------------
E---------------------------------------------------------------
C F Fsus2
e----------------------------------------------------------------
B---------------------------------1------------------1-----------
G---0-------0--0--0----------0----0------0--0--0--0--0--0--0--0--
D---0----0--0--0--------0----0----0h2----2--2--2--2-----0--0--0--
A---0h2-----2-----------0h2--------------------------------3-----
E--------------------3-------------------------------------------
e---------------------------------1------------------------------
B----------------------------1----1---------1--1-----1-----------
G---0------------------------0----0h2-------2--2-----0-----------
D---0h2-----------------0h2--------------------------------------
A--------------------3-------------------------------------------
E----------------------------------------------------------------
Am ^ G C
e-------------0---------0----------2----------2--2-----------
B-------------0---0-----0----------3----------3--3--------0--
G---0---------0---0-----0-------2--2----------2--2--------0--
D---2---------2---2-----2-------0--0----------0--------0-----
A---2-----2-------2-----2-------0--0--0h2--0-----------------
E---------0-----------------------------------------3--------
^
Друзья сайта
 
Пресса о Supermax!
Albums




 
 
 
 
 
 
 
 
 
 
 
 


Партнеры
 




Kurt Hauenstein и Supermax. Посвящается памяти музыканта. 2008 - 2018 Хостинг от uCoz