Регистрация Вход Приветствую Вас
Меню сайта
 
 
 
 
 
 
 
 
 
 
 
 
 
 
 


Яндекс цитирования
 
 




LOST FOR WORDS 2
e---------------------------------------------------------0--
B---1---------------------------------0h1--0--0--0-----1--1--
G---2---------------------------------0----0--0--0-----0-----
D---2---------------------------0-----0h2--0-----------------
A---0-----------------------------------------------3--------
E------------------------------------------------------------
F C
e----------0-----------------
B----------1-----------------
G----------0--0----------0---
D---2------2--2----------0---
A---3------3--3--2--0h2------
E---0---------0--3-----------
(end Rhythm figure 1)
e----------------------------
B---1------------------------
G---2--------------------0---
D---3---------------0h2------
A---3------------3-----------
E----------------------------
GUITAR 3:(with Rhythm figure 1)
F Fsus2 C
e------------------------------------------------------------
B---------8--------------------------------------------------
G----7/9-----9/7--5--7p5---------5----7b(9)------------------
D-------------------------7p5--------------------------------
A------------------------------------------------------------
E------------------------------------------------------------
F Fsus2 C
e-------------------------------------------------------8p7--
B----------1--1-------1------1-----------------------8-------
G-----0h2--2--2p0-----0------0------------------7/9----------
D-----3------------3-----0h2------0h2------------------------
A-----------------------------------3------------------------
E------------------------------------------------------------
F Fsus2 Am
e----------------------------------------------------------------
B---8/10----8----------------------------------------------------
G--------------9/7---5---7p5---------5---7b(9)---5----------x----
D-----------------------------7p5--------------------------------
A----------------------------------------------------------------
E----------------------------------------------------------------
G C F/C C
e-------------------------------------------------------------------
B-------------------------------------------------------------------
G---4b(5 )r4--------------------------------------------------------
D-------------5---5--------5-----5/7---5---5------------------------
A--------------------5/7----------------------7/5---3---5p3------3--
E------------------------------------------------------------5------
VERSE:(with Rhythm figure 1)
C F Fsus2 C
I was spending my time in the doldrums,
F Fsus2 C
I was caught in a cauldron of hate.
F Fsus2 Am
I felt persecuted and paralysed,
G F Fsus2 Fmaj7
I thought that everything else would just wait.
While you are wasting your time on your enemies,
Engulfed by a fever of spite,
Beyond your tunnel vision reality fades
Like shadows into the night.
To martyr yourself to caution
Is not going to help at all.
Because there'll be no safety in numbers
When the Right One walks out of the door.

INTERLUDE:(electric guitar with distortion)
D Fsus2 Bb Am
Bbsus2 Bb Dsus2 (gtrs 1 & 2 start strumming chords)
D F D
VERSE:
C G
Can you see your days blighted by darkness?
C G
Is it true you beat your fists on the floor?
C Em
Stuck in a world of isolation
D/F# C Csus2
While the ivy grows over the door.
So I open my door to my enemies,
And I ask could we wipe the slate clean.
But they tell me to go fuck myself.
You know you just can't win.
Друзья сайта
 
Пресса о Supermax!
Albums




 
 
 
 
 
 
 
 
 
 
 
 


Партнеры
 




Kurt Hauenstein и Supermax. Посвящается памяти музыканта. 2008 - 2018 Хостинг от uCoz