Регистрация Вход Приветствую Вас
Меню сайта
 
 
 
 
 
 
 
 
 
 
 
 
 
 
 


Яндекс цитирования
 
 




Marching drums bit
(Nylon Strung guitar)
E----------------------------------------------------------------------------
B----------------------------------------------------------------------------
G----------------------------------------------------------------------------
D---2----2/4-4---4/5-5--5/-9--9--7--------7-9-10-7-9-5-7-7h9p7-5h7p5-3h5p3---
A----------------------------------------------------------------------------
E----------------------------------------------------------------------------
E----------------------------------------------------------------------------
B----------------------------------------------------------------------------
G----------------------------------------------------------------------------
D--2----2/4-4---4-5-5--5/-9--9--9--5--7------------7--10--9/-12----10p9--7---
A----------------------------------------------------------------------------
E----------------------------------------------------------------------------
E----------------------------------------------------------------------------
B----------------------------------------------------------------------------
G----------------------------------------------------------------------------
D--2---2/4-4---4/5-5---5/-9--9--7---------------7-10-9--5--9--7---5--7--7/9--
A----------------------------------------------------------------------------
E----------------------------------------------------------------------------
E----------------------------------------------------------------------------
B----------------------------------------------------------------------------
G----------------------------------------------------------------------------
D--2--2/4-4---4-5-5---5/-9--9--9--5--7----------7\5--3--2--3-----2-----------
A-------------------------------------------------------------5-----3--------
E---------------------------------------------------------------------5---3--
Then this intro comes in again.(x4)
E------15--------15--------18--------18--------11--------11--------------
B------13--------13--------16--------16---------9---------9--------------
G------------------------------------------------------------------------
D------------------------------------------------------------------------
A------------------------------------------------------------------------
E------------------------------------------------------------------------

Encumbered forever by desire and ambition
Theres a hunger still unsatisfied
Our weary eyes still stray to the horizon
Though down this road I've been so many times

(same sequence as in first chorus )
The grass was greener
The light was brighter
The taste was sweeter
The nights of wonder
With friends surrounded
The dawn mist glowing
The water flowing
The endless river
Forever and ever...
Друзья сайта
 
Пресса о Supermax!
Albums




 
 
 
 
 
 
 
 
 
 
 
 


Партнеры
 




Kurt Hauenstein и Supermax. Посвящается памяти музыканта. 2008 - 2018 Хостинг от uCoz