Регистрация Вход Приветствую Вас
Меню сайта
 
 
 
 
 
 
 
 
 
 
 
 
 
 
 


Яндекс цитирования
 
 




Marooned
Guitar setting: (distorted and with echo)
Bm(add9)
steady slide
E ---17-s-19-----------------------------------------------17--s-(14)-
B --------------------------------------------------------------------
G --------------------------------------------------------------------
D --------------------------------------------------------------------
A --------------------------------------------------------------------
E --------------------------------------------------------------------
Gmaj Em7
E -----------------------------------------------------------B--------
B -17-s-19------------------------------------------15-----17-(19)----
G ------------------------------------------------16------------------
D --------------------------------------------------------------------
A --------------------------------------------------------------------
E --------------------------------------------------------------------
Bm?
E --R-----------------------------------------------------------------
B --(17)-p15h17---------------------------------------17---15-s-14----
G --------------------------------------------------------------------
D --------------------------------------------------------------------
A --------------------------------------------------------------------
E --------------------------------------------------------------------
E --------------------------------------------------(24)--------------
B --------------------------------------------------N.H---------------
G --------------------------------------------------------------------
D --------------------------------------------------------------------
A --------------------------------------------------------------------
E --------------------------------------------------------------------
The transition between harmonics is like a steady gliss, Gilmour uses a whammy
pedal to depress the octave back to normal. You cannot do this with a normal
pedal.
Em7
E --(12)----------17s19-17s19---19---22p19---22s24---s---22---26-22s24
B --N.H----------------------------------------steady slide-----------
G --------------------------------------------------------------------
D --------------------------------------------------------------------
A --------------------------------------------------------------------
E --------------------------------------------------------------------
Bm
E ------------21-(22)-21--(22)--21------------------------------------
B -------19---B---R-----B-------------22p19-----------17p15----17p15--
G -----x-----------------------------------21h23p-21--------16--------
D ----x---------------------------------------------------------------
A --rake--------------------------------------------------------------
E --------------------------------------------------------------------
Gmaj Em7
E --------B------------17--B------------B-----------------------------
B -----17-(19)-----------17(18)-------17-(19)----s---7s5--------------
G -16-----------------------------------------------------------------
D ------------------------------------------steady slide--------------
A --------------------------------------------------------------------
E --------------------------------------------------------------------
E ------------------------------------B-----R-------------------------
B ----------------------12----15p12--15(17)-15------15------15s17-----
G --------------------------------------------------------------------
D --------------------------------------------------------------------
A --------------------------------------------------------------------
E --------------------------------------------------------------------
This bit may be more complex!
Bm(add9)
E ------------------------------------B-----B-----R-------------B------
B --------19-------------------------17(19)-17(19)17p15--17---17(19)p15
G --19-19----------------------------------------------16--16----------
D ---------------------------------------------------------------------
A ---------------------------------------------------------------------
E ---------------------------------------------------------------------
Gmaj
E -17s19---19------19-19------19-19--19-19--21(22)--21p19-21(22)------
B -------------------------------------------B--------------B---------
G --------------------------------------------------------------------
D --------------------------------------------------------------------
A --------------------------------------------------------------------
E --------------------------------------------------------------------
Em7
E -21p19h21---21(22)--21p19-------------------------------------------
B --------------B-----------24--s-36-------36-36----36s34--s31--------
G -----------------------------^--------------------------------------
D -------------------------steady slide-----------steady slide---------
A --------------------------------------------------------------------
E --------------------------------------------------------------------
Друзья сайта
 
Пресса о Supermax!
Albums




 
 
 
 
 
 
 
 
 
 
 
 


Партнеры
 




Kurt Hauenstein и Supermax. Посвящается памяти музыканта. 2008 - 2018 Хостинг от uCoz