Регистрация Вход Приветствую Вас
Меню сайта
 
 
 
 
 
 
 
 
 
 
 
 
 
 
 


Яндекс цитирования
 
 




ON THE TURNING AWAY
G
It's a sin that some how
C Em D G5 G C
Light is changing to shadow, and casting its shroud over all we have known.
Em C G Em G C
Unaware how the ranks have grown, driven on by a heart of stone,
G C Em D G5 G Em D
we could find that we're all alone in the dream of the proud on the wings of
G C Em D G
the night As the day time is stirring, where the speachless unite in a
C Em C G Em G
silent accord, using words you will find as strange, mesmerized as they light
C G C Em D G
the flame, Feel the new wind of change on the wings of the night

BRIDGE:(distorted electric)
E5 D Cadd9 C5 D5 Em D A5 (B note on fifth string)
(A note on fifth string) C5 C#5/D5/A5\ A5 Am C C#5/D5/A\ E5
/ = Slide up to next chord \ = slide down to next chord

VERSE:
Em D G5 C Em
No more turning away, from the weak and the weary,
D G5 C
No more turning away from the coldeness inside.
e----------------------------------------------------------------
B---------------------------------1------------------------------
G----------------------0----------0----------------10b(11)r10--5-
D----------------------0----------2------------------------------
A----------------------X----------3------------------------------
E----------------------3-----------------------------------------
Em C G5 Em G C
Just a world that we all must share It's not enough just to stand and stare
e----------------------------------------------------------------------------
B----------------------------------------------------------------------------
G--------------------------0------0------------------------------------------
D--5---------------------5-2------0------------------------------------------
A----7---------------------3------X------------------------------------------
E----0----------------------------3------------------------------------------
G Em C D G
Is it only a dream that there'll be no more turning away
SOLO:
G
e--------------------
B--------------------
G--------------------
D--------------------
A--------------------
E---0-2b(3)--2vvvvv--
E5 C
e-----------------------------------------12-------------------
B---15b(17)vvvvvvv---15p12-(13)r15vvvvvv-------12vvvvvvvvvv----
G--------------------------------------------------------------
D--------------------------------------------------------------
A--------------------------------------------------------------
E--------------------------------------------------------------
e--------------------------------------------------------------------------
B--------------------------------------12-----15-----15>(17)>15-vvvvvvvvv--
G--------0-2-2>(3)>2>0-----------------------------------------------------
D-----\2----------------2-vvvvvvvv-----------------------------------------
A--------------------------------------------------------------------------
E--------------------------------------------------------------------------
D G
e-------------------------------------------------------------------------
B-------15b(17)===========>15--15-15vvvvvvvv--12---------15-vvvvvvvvvv----
G---------------------------------------------------14--------------------
D-------------------------------------------------------------------------
A-------------------------------------------------------------------------
E-------------------------------------------------------------------------
Друзья сайта
 
Пресса о Supermax!
Albums




 
 
 
 
 
 
 
 
 
 
 
 


Партнеры
 




Kurt Hauenstein и Supermax. Посвящается памяти музыканта. 2008 - 2018 Хостинг от uCoz