Регистрация Вход Приветствую Вас
Меню сайта
 
 
 
 
 
 
 
 
 
 
 
 
 
 
 


Яндекс цитирования
 
 




ONE OF THE FEW
synth drone D
INTRO:(w/clock and cars)
--------------------------------------------------------------------
--------------------------------------------------------------------
--------------------------------------------------------------------
------------------0----------------0--------------------------------
--------------------------------------------------------------------
--------------------------------------------------------------------
--------------------------------------------------------------------
---11--11-----------10--10-------\---8---8---\-6-\--3-----3---------
--------------------------------------------------------------------
-0----------------0---0------------0---0------------0---------------
--------------------------------------------------------------------
--------------------------------------------------------------------
--------------------------------------------------------------------
---13--13-----------11--11-----------8---8---\-6-\--3-----3---------
--------------------------------------------------------------------
-0---0------------0---0------------0---0-----0------0---------------
--------------------------------------------------------------------
--------------------------------------------------------------------
VERSE:
--------------------------------------------------------------------
---11--11-----------10--10-----------8---8-----6-\--3-----3---------
--------------------------------------------------------------------
-0---0------------0---0------------0---0------------0---------------
--------------------------------------------------------------------
--------------------------------------------------------------------

--------------------------------------------------------------------
---13--13-----------11--11-----------8---8-----6-\--3-----3-----3---
--------------------------------------------------------------------
-0----------------0---0------------0---0-----0------0---------------
--------------------------------------------------------------------
--------------------------------------------------------------------

fade in schoolyard sounds
--------------------------------------------------------------------
---11--11-----------10--10-----------8---8-----6-\--3-----3-5---6---
--------------------------------------------------------------------
-0---0------------0---0------------0---0------------0---------------
--------------------------------------------------------------------
--------------------------------------------------------------------

--------------------------------------------------------------------
---13--13-----------11--11-----------8---8-----6-\--3---------------
--------------------------------------------------------------------
-0---0------------0---0------------0---0-----0------0---------------
--------------------------------------------------------------------
--------------------------------------------------------------------
-------------------------------------------
-------------------------------------------
-------------------------------------------
-------------------------------------------
-------------------------------------------
-------------------------------------------
When you're one of the few
To land on your feet
What do you do to make ends meet? "Teach" (w/echo repeats)
Make 'em mad
Make 'em sad
Make 'em add two and two
Or make 'em me
Or make 'em you
Make 'em do what you want them to [Laugh]
Make them laugh
Make 'em cry
Make 'em lay down
Друзья сайта
 
Пресса о Supermax!
Albums




 
 
 
 
 
 
 
 
 
 
 
 


Партнеры
 




Kurt Hauenstein и Supermax. Посвящается памяти музыканта. 2008 - 2018 Хостинг от uCoz