Регистрация Вход Приветствую Вас
Меню сайта
 
 
 
 
 
 
 
 
 
 
 
 
 
 
 


Яндекс цитирования
 
 




PIGS 2
Solo ~~~~~~~~~~ ~~~~~~~~~
-12------------12----12----12---------12-------12--------------12--12-12--
-15b-----------15b---15b---15b--------15b----------15pb--------15b----15b-
--------------------------------------------------------------------------
--------------------------------------------------------------------------
--------------------------------------------------------------------------
--------------------------------------------------------------------------
~~~~ ~~~~~~~~
~~~~~
-12-12---12----14---14---14---14\-------15------------15b--12--15/17--17b-
----15b--15b---17b--17b--17b--17\---12------------12-------12-------------
--------------------------------------------------------------------------
--------------------------------------------------------------------------
--------------------------------------------------------------------------
--------------------------------------------------------------------------
1 1/2
-17/19-19b-----19--17--17\15--17/19--17--15--14--15--14------14-----------
---------------------------------------------------------17-----17--15----
--------------------------------------------------------------------------
--------------------------------------------------------------------------
--------------------------------------------------------------------------
--------------------------------------------------------------------------
1/2~~~~~~~ 1/2
~~~~
-----------------12-------------------------------------------------------
-15--14-13\12-15----12h13p12-----12---------------------------------------
------------------------------14---14b--------12--14--14pb-p12---14-12----
---------------------------------------------------------------14------14-
--------------------------------------------------------------------------
--------------------------------------------------------------------------
1/2~~~~ 1/2 ~~~~~~ ~~~~
--------------------------------------------------------------------------
------15-15-----15b----15----------12-----------------------------0-----0-
-x-x-----14b----14b----14p12---14--12-----------------------------0---x-0-
--------------------------------------14--12------------------------------
------------------------------------------12--14\12p10--12p10-------------
--------------------------------------------------------------12----------
---------------------------3-----3------3-------5---5\3------/12--12------
-------------------------------------------------------------/12-----12---
-2b---2b---2b------0--2/4----/4----/4------4/6------6\4---4---------------
----------------2---------------------------------------------------------
--------------------------------------------------------------------------
--------------------------------------------------------------------------
~~~~~~~~~~~~~~ 1/2
-15p12-7--15p12-7--15p12-7--15p12-7---15b------------15--14--14b----14-12-
--------------------------------------------------------------------------
--------------------------------------------------------------------------
--------------------------------------------------------------------------
--------------------------------------------------------------------------
--------------------------------------------------------------------------
~~~~ 1/4
-12-----------------------------------------------------------------------
----15b-----15p12----12-12------------------------------------------------
------------------14-------14pb--12-14p12----12---------------------------
------------------------------------------14----14-13-12----12------------
---------------------------------------------------------14----14--10--12-
--------------------------------------------------------------------------
~~~~~~
-------------------------------------------12----15-----------------------
-12----------12-------14-14b----------15b--15b--------15b--12--15-----15\-
-12----------12---14--14-14b--14--12--------------------------------------
----14p12-----------------------------------------------------------------
----------14--------------------------------------------------------------
--------------------------------------------------------------------------
~~~~~~~ 1/4
---------------14---------14-------14-------------------------------------
-x-15--15---------14----------15-------14---------------------------------
-----------14---------14---------14--------14b----0-14b-12-14--12b--------
-------------------------------------------------------------------14-----
----------------------------------------------------------------------14\-
--------------------------------------------------------------------------
Друзья сайта
 
Пресса о Supermax!
Albums




 
 
 
 
 
 
 
 
 
 
 
 


Партнеры
 




Kurt Hauenstein и Supermax. Посвящается памяти музыканта. 2008 - 2018 Хостинг от uCoz