Регистрация Вход Приветствую Вас
Меню сайта
 
 
 
 
 
 
 
 
 
 
 
 
 
 
 


Яндекс цитирования
 
 




POLES APART
TUNING: DADGAD
INTRO:
D-------------0-----------------0--------
A-------0-----------0-----0-----------0--
G----7-----------------6-----------6-----
D----------5-----5-----------5-----------
A----------------------------------------
D----------------------------------------
D-------------0-----------------0--------
A-------0-----------0-----0-----------0--
G----4-----------------6-----------6-----
D----------5-----5-----------5-----------
A----------------------------------------
D----------------------------------------
D-------------0-----------------0--------
A-------0-----------0-----0-----------0--
G----7-----------------6-----------6-----
D----------5-----5-----------5-----------
A----------------------------------------
D----------------------------------------
________________________________________
1.-3 3x
D-------------0-----------------0---------
A-------0-----------0-----0-----------0---
G----4-----------------6-----------6-----*
D----------5-----5-----------5-----------*
A-----------------------------------------
D-----------------------------------------
_______________________________________
4.
D-------------0-----------------0--------
A-------0-----------0-----0-----------0--
G----4-----------------2-----0-----0-----
D----------5-----5-----------------------
A----------------------------------------
D----------------------------------------

Rhythm figure 1
D------------------------------------------
A-------------------0----------------------
G-------------0-----------------0----------
D-------4--------4--------4-------------4--
A----------0-----------------0-------------
D----0-----------------0-----------(0)-----
D------------------------------------------
A-------------------0----------------------
G-------------0-----------------0----------
D-------4--------4--------4-------------4--
A----------0-----------------0-------------
D----0-----------------0-----------(0)-----
D------------------------------------------
A-------------------0----------------------
G-------------0-----------------0----------
D-------4--------4--------4-------------4--
A----------0-----------------0-------------
D----0-----------------0-----------(0)-----
Друзья сайта
 
Пресса о Supermax!
Albums




 
 
 
 
 
 
 
 
 
 
 
 


Партнеры
 




Kurt Hauenstein и Supermax. Посвящается памяти музыканта. 2008 - 2018 Хостинг от uCoz