Регистрация Вход Приветствую Вас
Меню сайта
 
 
 
 
 
 
 
 
 
 
 
 
 
 
 


Яндекс цитирования
 
 




POLES APART 2
D------------------------------------------
A-------------------0----------------------
G-------------0-----------------0----------
D-------4--------4--------4-------------4--
A----------0-----------------0-------------
D----0-----------------0-----------(0)-----
Rhythm figure 2
D-------------------------------------
A-------------------0-----------------
G-------------0-----------------0-----
D-------0--------0--------0--------0--
A----------5-----------------5--------
D----5-----------------5--------------
D-------------------------------------
A-------------------0-----------------
G-------------0-----------------0-----
D-------0--------0--------0--------0--
A----------5-----------------5--------
D----5-----------------5--------------
D-------------------------------------
A-------------------0-----------------
G-------------0-----------------0-----
D-------0--------0--------0--------0--
A----------5-----------------5--------
D----5-----------------5--------------
D-------------------------------------
A-------------------0-----------------
G-------------0-----------------0-----
D-------0--------0--------0--------0--
A----------5-----------------5--------
D----5-----------------5--------------
VERSE:(with Rhy. figs 1 and 2)
Did you know
it was all going to go
so wrong for you?
And did you see
it was all going to be
so right for me?
D----------------------------------------------------------------------
A----------------------------------------------------------------0-----
G----------------------------------------------------------------0-----
D----2/4-------2-----0-------------------------------------------4-----
A---------------------------2/4--------2--------0----------------------
D----------------------------------------------------------------------
Why did we tell you then, You
D----------------------------------------------------------------------
A----0--0-------------------------------------------------0--0--0------
G-------0---------------------0-------------0-----0-------0-----0------
D----5--4-----2-----0---------0-------------0-----0-------4--5--4------
A---------------------------2h4--------2p0--2-----2--0-----------------
D----------------------------------------------------------------------
were al - ways the gold - en boy then, And that you'd
Друзья сайта
 
Пресса о Supermax!
Albums




 
 
 
 
 
 
 
 
 
 
 
 


Партнеры
 




Kurt Hauenstein и Supermax. Посвящается памяти музыканта. 2008 - 2018 Хостинг от uCoz