Регистрация Вход Приветствую Вас
Меню сайта
 
 
 
 
 
 
 
 
 
 
 
 
 
 
 


Яндекс цитирования
 
 




SHINE ON
YOU CRAZY DIAMOND PART 3
VERSE:
Remember when you where young.......
-------------------------------------3-------
----------------------------------3--3-------
-----3-----5>(7)>5----------------3----------
--5-----5------------4---------3-------------
-------------------------------1----------5--
---------------------------------------------

Shine on you crazy.......
--------------------------------------------------
--------------------------------------------------
--------------------------------------------------
--8---8---5---3---3-------------------------------
--6---5---3---1---3---3>(5)>3---------------------
------------------1-------------1vvvv---1--2vvvv--

Now there's a look.....
-----------------------------------------------
----6>(8)>6---------2------------3--3--3-------
-------------5>(7)---------------3--3--3-------
-----------------------------3---3--3----------
-----------------------------1-------------5\--
-----------------------------------------------

Shine on you crazy.....
-------------------------13--13--13--10--8/10--1--
-------------------------13--13--13--10--8/10--1--
---8---8---5---3----------------------------------
---6---5---3---1----------------------------------
--------------------1-----------------------------
--------------------------------------------------

You were cought in the crossfire....
and
Well you wore out your welcome...

-----------------------------------------------------------------
-----------------------------------------------------------------
-----3--5--5>(7)>5-------3--5--5>(7)>5>3-----3--5--5>(7)>5-------
--5-------------------4-------------------3------------------2---
-----------------------------------------------------------------
-----------------------------------------------------------------

-----------------------------------------------------------------------1---2---
-----------------------------------------5-----------------6-----------------3-
-----------------8-----8--------------6-----6-----------7-----7----------------
-----------------8>10--8-----------5------------------8----------8--0----0-----
--3--5--6--8/10-----------10\7--7----------------7--8--------------------------
-------------------------------------------------------------------------------

interlude is part 4
You reached for the ...
---------------------------------------------------------3-------------
----------------------11--13>(15)>13-----------------3---3---3---------
-----------------------3---5>(7)>5--->3--------------3-------3---------
---5-----------------------------------------4---3---------------------
-------------------------------------------------1------------------5--
---3-------------------------------------------------------------------
Друзья сайта
 
Пресса о Supermax!
Albums




 
 
 
 
 
 
 
 
 
 
 
 


Партнеры
 




Kurt Hauenstein и Supermax. Посвящается памяти музыканта. 2008 - 2018 Хостинг от uCoz