Регистрация Вход Приветствую Вас
Меню сайта
 
 
 
 
 
 
 
 
 
 
 
 
 
 
 


Яндекс цитирования
 
 




SHINE ON YOU 3
-------------------------------------------------------------------------
-------------------------------------------------------------------------
---15--17>(19)>17>(19)----17>(19)>(20)vvvvv----17>(19)>(20)---17>(20>17--
-------------------------------------------------------------------------
-------------------------------------------------------------------------
-------------------------------------------------------------------------
--------------------------------15----15-----15--------------15---15--
----------------------------18>(20)------18>(20)>18>15---18>(20)------
----------------------------------------------------------------------
--16---16>17>16\14>16--16---------------------------------------------
----------------------------------------------------------------------
----------------------------------------------------------------------
--17>(18)--17>(18)---17-----------------------------------------------
-------------------------18>(20)----(20)>18>15---18-------------------
-----------------------------------------------------17>(19)=====>17--
----------------------------------------------------------------------
----------------------------------------------------------------------
----------------------------------------------------------------------
---------------------------------------------------------------------------
---------------------------------------------------------------------------
--(19)>17>15-----------------3---5---5>(7)>(8)>5---(8)>5--3--5--5>(7)vvvv--
--------------17\---------5------------------------------------------------
---------------------------------------------------------------------------
---------------------------------------------------------------------------
-----------------------------------------------------------------------
----------3----6-------------------------------------------------------
---5>(7)-----------5>(8)==========>5--(7)>5>3-----5--5>(7)vvvvvvvv>5---
-----------------------------------------------------------------------
-----------------------------------------------------------------------
-----------------------------------------------------------------------
KEYBOARD SOLO:
Gm Cm
------------------------------------------------------------
---------5\3-------------------5\3-------------------10\8---
------------------------------------------------------------
---3/5---5\3--------------3/5--5\3-------------8/10--10\8---
---------------------------------------5--------------------
------------------------------------6-----------------------
Gm Eb D Eb D Gm Cm Gm D7#9
----------------------------------------------------------------------------
--------5\3-----8------7------8------11\---7---------------------------6----
-----------------------------------------------------------------------5----
---3/5--5\3-----8------7------8------11\---7---------------------------4----
-----------------------------------------------------------------------5----
----------------------------------------------------------------------------
SOLO:
------15------------15---18>15-------------------3----------------0----------
--15-------18>(20)--------------18>(20)\------3------6-----------------------
---------------------------------------------------------5>(7)----5>3--5--3--
-----------------------------------------------------------------------------
-----------------------------------------------------------------------------
-----------------------------------------------------------------------------
-----------------------------------------------------------18-----------------
--------------------------------------11----11-----18>(20)-----18>(20)vvvv18\-
----------15>(17)>15>(19)>15----11/12----12-----------------------------------
--5vvvv-----------------------------------------------------------------------
------------------------------------------------------------------------------
------------------------------------------------------------------------------
Друзья сайта
 
Пресса о Supermax!
Albums




 
 
 
 
 
 
 
 
 
 
 
 


Партнеры
 




Kurt Hauenstein и Supermax. Посвящается памяти музыканта. 2008 - 2018 Хостинг от uCoz