Регистрация Вход Приветствую Вас
Меню сайта
 
 
 
 
 
 
 
 
 
 
 
 
 
 
 


Яндекс цитирования
 
 




SHINE ON YOU 6
Verse 1:
Em
Sweet smell of great sorrow lies over the land,
D/E
Plumes of smoke rise, and merge into the leaden sky,
C/E
A man lies and dreams, of green fields and river,
Em
But awakes to the morning, with no reason for waking.
Fill 1
D/E
-------------------
----0-------7------ <-- sustain into the D/E chord.
------------7------
------------7------
-------------------
-------------------
Em
He's haunted by the memory of a lost paradise, (Play Fill A)
Bridge:

One word, one soul.
Time pass, river roll.
--------------------------------------
--------------------------------------
-----------------------------------4--
--5------5--7------5--------5------4--
--5------5--7------5--------5------2--
--3------3--5------3--------7---------
-----------------------------2-----
-------5---------------------3----- <- swell in w/ volume control on
-------6---------------------4----- all simile.
-----------------------------------
-----------------------------------
-----------------------------------
------/17vvvv---------------------2--/17vvvvv-----
---5------------------------------3--------------- <- two guitars again!
---6------------------------------4---------------
--------------------------------------------------
--------------------------------------------------
--------------------------------------------------
-----/17vvvvvvv---------------2--/12vvvvvvvv---
------5-----------------------3---------------- <- three guitars!
------6-----------------------4----------------
-------------"7">("5")>"7"-------\/-\/-\/------ <- slight feedback
----------------------------------------------- (harmonic only)
-----------------------------------------------
----------------------------------2-----------------
---/10vvvv-5----------------------3-----------------
-----------6----------------------4-----------------
--("7")-------\("5")/"7"vvvvvvv---------------------
------------------------------------//////0---vvvv--
Verse 3:
(hold low E till "dedication", than dive out w/bar)
Em
And he talks to the river, of lost love and dedication,
D/E
Slient replies, that swirl invitation,
C/E
Flow dark and troubled, to an oily sea,
Em D/E Em D/E
A grim intmation, of what is to be.
------------------------------------------------------------------
--------------------------------------------------------0---7--\--
---------------------------------------------------0----0---7--\--
----------------------0--2-----0--0-------------------------7--\--
------------------------------------------------------------------
-------------------------------------0vvvvvvv---------------------
Em
There's an unceasing wind, that blows through this night,
D/E
There's dust in my eyes, it blinds my sight, (Play Fill D)
C/E
And silence that speaks so much louder than words, (Play Fill D)
Em
Of promises broken.

SOLO:
--------------------------------------------0--0--0--0--0--0--0--0vvvv--
------------------------------------------3/5--5--5--5--5--5--0--0vvvv--
---7/9\7-\-----(2)>4\-(-3)>4vvvvvvv>2>0---------------------------------
---7/9\7-\--------------------------------------------------------------
---5/7\5-\--------------------------------------------------------------
------------------------------------------------------------------------
---0-----------0---0---0---0-----------------------------------
---0----2>3>2--0---0---0---0-----------------------------------
------------------------------'2'>'3'>'2'vvvvv--2>0--2vvvvvv---
---------------------------------------------------------------
---------------------------------------------------------------
---------------------------------------------------------------
----------------------------------------------------------------------
----------------------------------------------------------------------
----------------------------------------------------------9--7vvvvvv--
--/2--5--/0---5--2>0------5-------------------------------9--7vvvvvv--
----------------------2>0-----2>0--------------------/7---------------
------------------------------------3---0vvvvvvvv---------------------
------------------------------0------------------------------------------
--/0-------------------3/5-------5vvvvv----------------------------------
-------2>(4)>2vvvv-----------------------2-\/-\/vvvvvv---2--2/4>0-2vvv---
-------------------------------------------------------------------------
-------------------------------------------------------------------------
-------------------------------------------------------------------------
-----------------------------------------------------0--
------------------------------------------------3/5-----
--0>2--2vvvv----2>3>2>0--2--0>2vvvv\/vvvvv>0------------
--------------------------------------------------------
--------------------------------------------------------
--------------------------------------------------------
--0---5>0--0--3>0--0--5>0--0--3>0--0--5>0--0--3---2--2---\/-\/-\/-\/-vvvvv--
----------------------------------------------5---3--3---\/-\/-\/-\/-vvvvv--
----------------------------------------------------------------------------
----------------------------------------------------------------------------
----------------------------------------------------------------------------
----------------------------------------------------------------------------
------------0-------------------------------------------------------
---(3)>5------3>0---------------------------------------------------
-------------------2>(3)>2>0-----2----------------------------------
------------------------------2------2----0>2>0---------------------
--------------------------------------------------------------------
--------------------------------------------------\5---0vvvvvvvvvv--
--------------12--14--15--17>(19)vvvvv--17>(19)>17>15---17>(19)>17>15--17vvv-
---15>(17)\------------------------------------------------------------------
-----------------------------------------------------------------------------
-----------------------------------------------------------------------------
-----------------------------------------------------------------------------
-----------------------------------------------------------------------------
--17>(19)vvvvvvv------15--17vvvvvv\---0--0-----0----------------------
--------------------------------------0--3/5---5------5\3>0-----------
--------------------------------------------------------------2>(4)---
----------------------------------------------------------------------
----------------------------------------------------------------------
----------------------------------------------------------------------
Друзья сайта
 
Пресса о Supermax!
Albums




 
 
 
 
 
 
 
 
 
 
 
 


Партнеры
 




Kurt Hauenstein и Supermax. Посвящается памяти музыканта. 2008 - 2018 Хостинг от uCoz