Регистрация Вход Приветствую Вас
Меню сайта
 
 
 
 
 
 
 
 
 
 
 
 
 
 
 


Яндекс цитирования
 
 




SHINE ON YOU CRAZY
DIAMOND PART 2
---------------0----
------6------------- <-- repeat 4 times.
----------0---(0)---
---8----------(8)---
--------------------
--------------------
C Gm7
-------------0----------------------------------------------------0---
------6-----------------------------------------------------6---------
---------0-----------------------------------------------------0------
---8-----------------------------------------------------8------------
-----------------3--3--3--3--3--3--3--3--3--3/5-----------------------
-----------------1--1--1--1--1--1--1--1--1--1/3-----------------------
Eb D Gm7
------------------------------------------------------------------------
------6-----------------------------------------------------------------
----------0---8------------8---7----------------------------------------
--8-----------8------------8---7----------------------------------------
-------------------------------------3--3--3--3--3--3--3--3--3--3/5-----
-------------------------------------1--1--1--1--1--1--1--1--1--1/3-----
------------------0---
-------6--------------
------------0---------
---8------------------
----------------------
----------------------

SOLO:
-------------------------------------3---------------------------------------
----------------------------------3-----3------------------------------------
---17>(19)>17---15--17----------------------5>(7)----(7)>5>3------5---3------
------------------------17\------------------------------------5----------5--
-----------------------------------------------------------------------------
-----------------------------------------------------------------------------
--18>15-----18---17>(18)--17vvv---------------------------------------------
--15----15--15---------------------18>15--18>(20)----18>(20)>18>15--18vvvv--
----------------------------------------------------------------------------
----------------------------------------------------------------------------
----------------------------------------------------------------------------
----------------------------------------------------------------------------
--18>15------18>15-----18>(20)---18>(20)>1815--18------------------
---------15--------15------------------------------18>(20)--18\----
-------------------------------------------------------------------
-------------------------------------------------------------------
-------------------------------------------------------------------
-------------------------------------------------------------------
--------------------------------------------------------------------------
--------------------------------------------------------------------------
--15>(17)>(19)>15--12--15>(16)vvv-12------6\5--3>(4)----------------------
-------------------------------------------------------5------------------
-----------------------------------------------------------4\3---1--3/5---
--------------------------------------------------------------------1/3---
--------------------------6--------------------------------------
-----------------------------5/6--8/-------(11)>10>8------8/-----
------3--------------6>7------------------------------10---------
------3--3/5vvvvvv-----------------------------------------------
--4/5------------------------------------------------------------
-----------------------------------------------------------------
Друзья сайта
 
Пресса о Supermax!
Albums




 
 
 
 
 
 
 
 
 
 
 
 


Партнеры
 




Kurt Hauenstein и Supermax. Посвящается памяти музыканта. 2008 - 2018 Хостинг от uCoz