Регистрация Вход Приветствую Вас
Меню сайта
 
 
 
 
 
 
 
 
 
 
 
 
 
 
 


Яндекс цитирования
 
 




SHINE ON YOU CRAZY 2
DIAMOND PART 4
Two Guitars:
-----------------------------------------------------
--13>(15)vvvvvvvvv--(15)>13>11--13>(15)vvvvvvvvvvv---
---5>(7)vvvvvvvvvv---(7)>5>3-----5>(7)vvvvvvvvvvvv---
-----------------------------------------------------
-----------------------------------------------------
-----------------------------------------------------
-----------------------------------------13--15>(16)--15vvvvv\--
--(15)>13--11--13--14--15vvvv---15--16----6---8>(9)----8vvvvv---
---(7)>5----3---5---6---7vvvv----7---8--------------------------
----------------------------------------------------------------
----------------------------------------------------------------
----------------------------------------------------------------
----------------------------------------------------------------------------
--15>(16)-----15-------16>(18)--16>15---13vvv-------------------------------
---7>(8)-------7--------8>(10)---8>7-----5vvv----12>10vvvvvv----------------
--------------------------------------------------------------------4vvvvv--
----------------------------------------------------------------------------
-----------------------------------------------3>(5)>3--1vvvv---1---2vvvvv--


SHINE ON YOU CRAZY 3
DIAMOND PART 5
---------------0------------------------------0----
------6-----------------------------6--------------
---------0----(0)------------------------0---(0)---
--8-----------(8)---------------8------------(8)---
---------------------------------------------------
---------------------1>3>1>3-----------------------
--8-------10------8------0------8------10-------8--------
----6--------6------6------6------6-------6--------6-----
---------------------------------------------------------
-------8-------8------8------8------8-------8---------8--
---------------------------------------------------------
---------------------------------------------------------
-0--------8--------10------8-------0------8--------10-------8--------
----6--------6---------6-----6-------6-------6--------6--------6-----
--------------------------------------------------------------------- repeat
-------8--------8--------8------8-------8-------8--------8-------8--- 3
--------------------------------------------------------------------- times.
---------------------------------------------------------------------
--6---6------6-------5-------6-------6--------6------5------6---------
---------------8-------8-------8--------8-------8------8-------8------
----------------------------------------------------------------------
---------8--------8-------8-------8--------8-------8-----8--------8---
----------------------------------------------------------------------
----------------------------------------------------------------------
--5-------5-------4-------5--------6-----5--------4-----5---------
----7-------7-------7--------7--------7-----7--------7-----7------
------------------------------------------------------------------
------7--------7-------7--------7-------------7---------------7---
------------------------------------------------------------------
------------------------------------------------------------------
--0-------8--------10--------8-------0-------8-------10--------8-------
----6-------6----------6-------6-------6--------6--------6-------6-----
----------------------------------------------------------------------- repeat
------8--------8---------8--------8-------8--------8--------8-------8-- 8
----------------------------------------------------------------------- times.
-----------------------------------------------------------------------
--6------6------5------6------6------6-----5-------6---------
----8------8------8-------8-----8-------8-----8------8-------
-------------------------------------------------------------
------8-------8------8------8------8-------------8------8\7--
-------------------------------------------------------------
-------------------------------------------------------------
--5-----5-----4-----5-----6------5-----4-----5---------
-----7----7-----7-----7-----7-------7-----7-----7------
-------------------------------------------------------
------------7-----7-----7-----7--------------------7---
-------------------------------------------------------
-------------------------------------------------------
--0-------8-------10------8------0--------8-------10--------8---------
-----6-------6-------6------6-------6-------6---------6--------6------
---------------------------------------------------------------------- repeat
-------8-------8--------8------8-------8-------8---------8---------8-- and
---------------------------------------------------------------------- fade
----------------------------------------------------------------------
Друзья сайта
 
Пресса о Supermax!
Albums




 
 
 
 
 
 
 
 
 
 
 
 


Партнеры
 




Kurt Hauenstein и Supermax. Посвящается памяти музыканта. 2008 - 2018 Хостинг от uCoz