Регистрация Вход Приветствую Вас
Меню сайта
 
 
 
 
 
 
 
 
 
 
 
 
 
 
 


Яндекс цитирования
 
 




SORROW
INTRO:
e-----------------------------------------------------
B-----------------------------------------------------
G-----------------------------------------------------
D-----------------------------------------------------
A---------------------5/7-7vvvvvv--7/9\7\5vvvvvvvv----
E---/0vvvvvvvvvvv-------------------------------------
e-----------------------------------------
B-----------------------------------------
G-----------------------------------------
D-----------------------------------------
A------2/5-5vvvvvvv-----------------------
E----3-----------------/0\/vvvvvvvvvvv----
e---------------------------------------------------------------------
B---------------------------------------------------------------------
G---------------------------------------------------------------------
D---------------------------------------------------------------------
A----5/7-7vvvv---7/9\7\5vvvv------2/5-(3)>5\-0vvvvvv------------------
E------------------------------3-----------------------/0vvvvvvvvvv\--
e---------------------------------------------------------------
B---------------------------------------------------------------
G---------------------------------------------------------------
D---------------------------------------------------------------
A---5/7-7vvvvvvvv--7/9\7\5vvvvv-------2/5-5vvvvv--5/7-7vvvvvvv--
E---------------------------------3-----------------------------
e-------------------------------------------------------------------------
B-------------------------------------------------------------------------
G-----------------------------------------------------------"9"\\\/\\-----
D-------------------------------------------------------------------------
A---7/9\7\5vvvvvvv--------2/5(3)>5--5vvvvvvvvvv---------------------------
E--------------------3----------------------------/0vvvvvvvvvvvvvvvvvvvvv-
e--------------------------
B--------------------------
G--------------------------
D--------------------------
A--------------------------
E---///////0vvvvvvvvv------

Em
e---------------------------------------
B---------------------------------------
G----------------------------7----------
D----0\----------------------7----------
A----0\----------------------5----------
E---------------------------------------
guitar 2; --------------------
-------------------- <--- play over the D5 chord, it's
---("0")>"3">("-4")- a harmonic at the third fret,
-------------------- but depress the bar first, so
-------------------- it sounds like your going up to
-------------------- it, than dive w/bar to fret -4.
D/E C/E EM2
---------"12">("10)------------------------------------------
---------------/3>(1)----"12"\"7"/"12"----------------------- <- this is 2
---------------/2>(0)----"12"\"7"/"12"----------------------- guitars. You
---------------/0>(-2)--------------------------------------- can probably
------------------------------------------------------------- figure out
-------------------------------------------3/6--0vvvvvvvv\--- the arangment
one bar between chord changes.
v
D/E Em2
-----------------------------------
--------15--15>(17)======>15------- <-- 2 guitars, same as above. The bend
-------------7--------------------- is gradually released.
-------------7---------------------
-------------5---------------------
-----------------------------------
Друзья сайта
 
Пресса о Supermax!
Albums




 
 
 
 
 
 
 
 
 
 
 
 


Партнеры
 




Kurt Hauenstein и Supermax. Посвящается памяти музыканта. 2008 - 2018 Хостинг от uCoz