Регистрация Вход Приветствую Вас
Меню сайта
 
 
 
 
 
 
 
 
 
 
 
 
 
 
 


Яндекс цитирования
 
 




THE THIN ICE
INTRO:(with baby crying)
C Am7 Fmaj9 G
C G F C/G Am7
VERSE:
C Am
Mamma loves her baby
F G
and daddy loves you too
C Am
and the sea may look warm to you babe
F G
and the sky may look blue
C G F C/G Am
Ooooooooooooh babe
C G F C/G Am Am7 Am6
Oooooooh baby blue
C G F C Am D7 G
Ooooooooooh ooooooh babe
C Am
If you should go skating
F G
On the thin ice of modern life
C Am
Dragging behind you the silent reproach
Fmaj7 G
Of a million tear stained eyes
C Am
Dont be surprised, when a crack in the ice
F G
Appears under your feet
C Am
You slip out of your depth and out of your mind
F G
With your fear flowing out behind you
N.C.
As you claw the thin ice
SOLO:
Gtr. 1
e------------------------------------------------------------------
B------------------------------------------------------------------
G--7B(9)---R---(7)-7~~~~~~~~~~~~~~~7B(10)--R---(7)-7B(9)-----------
D------------------------------------------------------------------
A------------------------------------------------------------------
E------------------------------------------------------------------
Gtr. 2
e------------------------------------------------------------------
B------------------------------------------------------------------
G--9---------------7---------X-X-X-10--------------9---------------
D--9---------------7---------X-X-X-10--------------9---------------
A--7---------------5---------X-X-X-8---------------7---------------
E-----------------------------------------------------------X-12\--
w/bar
-----------------5---5----------------------------------------------
---------------5---8------------------------------------------------
----------7B(9)--------7-7B(8)R(7)P5---5----------------------------
-------------------------------------7---7-6-5----------------------
-----------------------------------------------7-6-5-3---3--\(0)/-\-
-------------------------------------------------------5------------
* w/bar
--------------------------------------------------------------------
--------------------------------------------------------------------
-2------------------------------------------------------------------
-2------------------------------------------------------------------
-0------------------------------------------------------------------
--------------------------------------------------------(-12)/----0-
*depress bar equivalent to 12 frets down, strike note & slowly release
-----------------------------------------------------------------
-----------------------------------------------------------------
-----------------7---7---------------------------9---9-----------
-----------------7---7---------------------------9---9-----------
-7~~~~~~~~~~~~~~~5---5-----------8~~~~~~~~~~~~~~~7---7-----------
------------------------------------------------------------12\--
-----------------------------------------------------------------
-----------------------------------------------------------------
-9---------------7---------------10--------------9---9-----9-9\--
-9---------------7---------------10--------------9---9-----9-9\--
-7---------------5---------------8---------------7---7-----7-7\--
-----------------------------------------------------------------
----------------17------------------17------17------17------------17---
-------------17----20-17-20-20B(22)~--20B(22)-20B(22)-20B(22)-20B(22)~~
-2----19B(21)----------------------------------------------------------
-2---------------------------------------------------------------------
-0---------------------------------------------------------------------
-----------------------------------------------------------------------
-----------------------------------------------------------------------
-----------------------------------------------------------------------
-2---------------------------2------2----------------------------------
-2---------------------------2------2----------------------------------
-0---------------------------0------0----------------------------------
--------------------------------3B(5)----------------------------------
---------------------------------------------------------------------
-15B(17)--R--(15)-15~~~~~~~~~~~~~~~15B(18)--R--(15)--15B(17)~~~~~~~~~
---------------------------------------------------------------------
---------------------------------------------------------------------
---------------------------------------------------------------------
---------------------------------------------------------------------
---------------------------------------------------------------------
---------------------------------------------------------------------
-9----------------7----------------10----------------9---------------
-9----------------7----------------10----------------9---------------
-7----------------5----------------8-----------------7---------------
---------------------------------------------------------------------
rake-]
--------------------------------15-17B(19)-----------------------------
-15B(17)--R--(15)-15~~~~~~~~--15---------------------------------------
----------------------------16-----------------------------------------
-----------------------------------------------------------------------
-----------------------------------------------------------------------
-----------------------------------------------------------------------
-----------------------------------------------------------------------
-----------------------------------------------------------------------
-9----------------10---------------12----------------------------------
-9----------------10---------------12----------------------------------
-7----------------8----------------10----------------------------------
-----------------------------------------------------------------------
fade out
-----------------------------------------------------------------
-17--------------------------------------------------------------
-17--------------------------------------------------------------
-17--------------------------------------------------------------
-15--------------------------------------------------------------
-----------------------------------------------------------------
-----------------------------------------------------------------
-----------------------------------------------------------------
-----------------------------------------------------------------
-10--------------------------------------------------------------
-10--------------------------------------------------------------
-8---------------------------------------------------------------
Друзья сайта
 
Пресса о Supermax!
Albums




 
 
 
 
 
 
 
 
 
 
 
 


Партнеры
 




Kurt Hauenstein и Supermax. Посвящается памяти музыканта. 2008 - 2018 Хостинг от uCoz