Регистрация Вход Приветствую Вас
Меню сайта
 
 
 
 
 
 
 
 
 
 
 
 
 
 
 


Яндекс цитирования
 
 




TIME
INTRO:(clean guitar with echo)
e-----------------------------------------------------------------------
B-----------------------------------------------------------------------
G-----------------------------------------------------------------------
D-----------------------------------------------------------------------
A-----------------------------------------------------------------------
E--------------0------------------2--------------------0----------------
e------------------------------------------------------------------------
B------------------------------------------------------------------------
G------------------------------------------------------------------------
D------------------------------------------------------------------------
A------------------------------------------------------------------------
E----2----------------0---------------0--1--2-------------0--------------
e-----------------------------------------------------------------(12)---
B------------------------------------------------------------------------
G------------------------------------------------------------------------
D--------------------2---------------------------------------------------
A----------------2---------------------------------------0---------------
E---0--1--2-------------2--------2----------2----------------------------
e-----------------------------(12)---------------------------------------
B------------------------------------------------------------------------
G------------------------------------------------------------------------
D------------------------------------------------------------------------
A------------------------------------------------------------------------
E---2b(3)--2--0---------------------------------------0--1--2------------

VERSE:(w/ distortion)
F#M A Asus4 A
Ticking away, the moments that make up a dull day
lead A
E F#m
You fritter and wasste the hours in an offhand way
lead B
A
Kicking around on a piece of ground in your home town
E F#m
Waiting for someone or something to show you the way.

Dmaj7 Amaj7
Tired of lying in the sunshine, staying home to watch the rain,
Dmaj7 Amaj7
You are young, and life is long, and there is time to kill today,
Dmaj7 C#m7
And then one day you find, ten years have got behind you
Bm7 E
No one told you where to run, you missed the starting gun.
SOLO:
e---------------------------------------------------------------------------
B---------------------------------------------------------------------------
G----------------------------------4>(6)======>(5)===>(6)vvvvvvvv>(5)>(6)---
D-----2>4vvvvvvvvvvvvvvvv---------------------------------------------------
A---------------------------------------------------------------------------
E---------------------------------------------------------------------------
e--------------------------------------------------
B--------------------------------------------------
G----4<(6)=======>4>2---4>(6)--4vvvvvvvvvvvvvvv----
D--------------------------------------------------
A--------------------------------------------------
E--------------------------------------------------
e----------------------------------------------5>(6)----------------
B-------------------------------5-5>7>5>7>5>7------------7vvvvvv----
G-------------------------/6----------------------------------------
D---4<(6)====>4vvvvvv-----------------------------------------------
A-------------------------------------------------------------------
E-------------------------------------------------------------------
Друзья сайта
 
Пресса о Supermax!
Albums




 
 
 
 
 
 
 
 
 
 
 
 


Партнеры
 




Kurt Hauenstein и Supermax. Посвящается памяти музыканта. 2008 - 2018 Хостинг от uCoz