Регистрация Вход Приветствую Вас
Меню сайта
 
 
 
 
 
 
 
 
 
 
 
 
 
 
 


Яндекс цитирования
 
 




WAITING FOR
THE WORMS

G C G C
Ooh Ooh Ooh You cannot reach me now
G C
Ooh No matter how you try
(with distortion)
e--------------------------------------------------------
B--------------------------------------------------------
G--------------------------------------------------------
D---x--x--7-----------------------5----------------------
A---x--x--5-----------------------3-------------5--------
E-----------------------------------------------3--------
Goodbye cruel world it's over walk on by

G G D C C B Am
Sitting in a bunker here behind my wall
Am G C
Waiting for the worms to come
G G D C C B Am
In perfect isolation here behind my wall
Am G C
Waiting for the worms to come
(powerchords with distortion)
A G A
Waiting to cut up the deadwood
G A
Waiting to clean up the city
G A
Waiting to follow the worms
G A
Waiting to put on a black shirt
G A
Waiting to weed out the weaklings
G A
Waiting to smash in their windows and kick in their doors
G A
Waiting for the final solution to strengthen the strain
G A
Waiting to follow the worms
G A
Waiting to turn on the showers and fire the ovens
G A
Waiting for the queers and the coons and the reds and the jews
G A
Waiting to follow the worms
G D C C B Am
Would you like to see Britannia rule again my friend
Am G C Riff1 x 2
All you have to do is follow the worms
G D C C B Am
Would you like to send our coloured cousins home again my friend
Am G C Riff1 x 20
All you need to do is follow the worms
[Segue to "Stop"]
Riff1
-----
(with distortion)
e-------------------------------
B-------------------------------
G-------------------------------
D----2--------------------------
A----2--------------------------
E----0---2vv---3vv---2vvvvvvv---
Друзья сайта
 
Пресса о Supermax!
Albums




 
 
 
 
 
 
 
 
 
 
 
 


Партнеры
 




Kurt Hauenstein и Supermax. Посвящается памяти музыканта. 2008 - 2018 Хостинг от uCoz