Регистрация Вход Приветствую Вас
Меню сайта
 
 
 
 
 
 
 
 
 
 
 
 
 
 
 


Яндекс цитирования
 
 




WERE HERE
Em7 A7sus4
e--------------------------------------------------------------------
B----------3-----5----5b(7)r5p3-----3---------------3--5-------------
G-----2/4-----4------------------4-------2----4b(5)-------4b(6)--2---
D--------------------------------------------------------------------
A--------------------------------------------------------------------
E--------------------------------------------------------------------
Em7 A7sus4 G
e------------------------------------------------------------------3-
B----------3-----5------5b(7)-(7)r5--3--5------------------------3-3-
G-----2/4-----4-------------------------------2----4b(6)r4--2----0-0-
D----------------------------------------------------------------0-0-
A--------------------------------------------------------------------
E--------------------------------------------------------------------
e---3--------3-----3--------3----
B---3------3-3-----3------3-3-3--
G---0------0-0-----0------0-0-0--
D---0------0-0-----0------0-0-0--
A---2------2-------2-------------
E---3------3-------3-------------
VERSE:
C D/F#
So, so you think you can tell
Am/E G D/F#
Heaven from hell, Blue skies from pain. Can you tell a green field
C Am G
From a cold steel rail, A smile from a veil? Do you think you can tell?
C D/F# Am/E
Did they get you to trade, Your heroes for ghosts, Hot ashes for trees,
G D/F# C
Hot air for a cool breeze, Cold comfort for change? Did you exchange
Am G
A walk on part in the war, For a lead role in a cage?
SOLO:(with scat vocal and Rhythm Figure 1)
Em7 G
e--------------------------------/10--------/12--10----------------------
B---/12--12--10/12--12----10/12-------12\--------------------/12--12-12\-
G------------------------------------------------------------------------
D------------------------------------------------------------------------
A------------------------------------------------------------------------
E------------------------------------------------------------------------
Em7 G
e------10\--------------------------------------------------
B--/12------/12\11/12-12------12\----7----------------------
G---------------------------------------7-------------------
D-------------------------------------------7/9-------------
A-----------------------------------------------------------
E-----------------------------------------------------------
Em7 A7sus4
e--------10--------10-10---------------------12------------------------
B--10/12-------/12------------15\------12/14--------14\--/14-14-14-14\-
G---------------------------------12\----------------------------------
D----------------------------------------------------------------------
A----------------------------------------------------------------------
E----------------------------------------------------------------------
Друзья сайта
 
Пресса о Supermax!
Albums




 
 
 
 
 
 
 
 
 
 
 
 


Партнеры
 




Kurt Hauenstein и Supermax. Посвящается памяти музыканта. 2008 - 2018 Хостинг от uCoz