Регистрация Вход Приветствую Вас
Меню сайта
 
 
 
 
 
 
 
 
 
 
 
 
 
 
 


Яндекс цитирования
 
 




WERE HERE 2
Em7 A7sus4 G
e---------10------------------------------------12------------------/10--
B---10/12---------12\----------12---------12/14--------14\10--------/10--
G------------------------12/14----12/14----------------------------------
D------------------------------------------------------------------------
A------------------------------------------------------------------------
E------------------------------------------------------------------------
VERSE:
C D/F#
How I wish, how I wish you were here,
Am/E G D/F#
We're just two lost souls simming in a fish bowl, Year after year,
C Am
Running over the same old ground, What have we found? The same old fears,
G
Wish you were here.
PLAY RHYTHM FIGURE ONE
SOLO:(with Rhythm Figure 1, doubled by scat vocal)
G Em7
e-----------------------------------------------------------------
B-----3---3--5---------3---3--5-------10/12-10--8-8---------------
G-------4--------4---4---4--------------------------7--9---9/12---
D-----------------------------------------------------------------
A-----------------------------------------------------------------
E-----------------------------------------------------------------
G Em7
e----------------------------------------------10--12\10------
B-----3--0--3---5---------8---8--10--8--10/12------------/12--
G---------------------------9---------------------------------
D-------------------------------------------------------------
A-------------------------------------------------------------
E-------------------------------------------------------------
G Em7
e--------7-----------------------------10-10-------10-10-------10-10-
B----/12---10p8-----/12-/12------10/12-------10/12-------10/12-------
G---------------9-7--------------------------------------------------
D--------------------------------------------------------------------
A--------------------------------------------------------------------
E--------------------------------------------------------------------
A7sus4 Em7
e---------------12-12------------10--------12----------10-------------------
B--10/12\10-/14------------10/12-----12/14-------10/12-------8----8---8---8-
G-------------------------------------------------------------------9---9---
D---------------------------------------------------------------------------
A---------------------------------------------------------------------------
E---------------------------------------------------------------------------
(begin fade) (fade into sound effects,
A7sus4 G with Rhy. Fig 1)
e--------------------------------------------------------------
B----8---8-10----\---------------------------------------------
G------9-------------------------------------------------------
D--------------------------------------------------------------
A--------------------------------------------------------------
E--------------------------------------------------------------
Друзья сайта
 
Пресса о Supermax!
Albums




 
 
 
 
 
 
 
 
 
 
 
 


Партнеры
 




Kurt Hauenstein и Supermax. Посвящается памяти музыканта. 2008 - 2018 Хостинг от uCoz