Регистрация Вход Приветствую Вас
Меню сайта
 
 
 
 
 
 
 
 
 
 
 
 
 
 
 


Яндекс цитирования
 
 




WISH YOU WERE HERE
INTRO: (Rhythm figure 1)
Em7 G
e---------------------3--3-3------3----------------3----3----3-----------
B-----------------3-3-3--3-3----3-3--------------3-3----3----3-----------
G-----------------0-0-0--0-0-0--0---0------------0-0-0--0----0-----------
D--------0----2--------------2----------2----0-------0--0--------------0-
A----0h2-----------------------------------------------------------0h2---
E----------------------------------------------------3--3-------3--------
Em7 G
e-----------3---3-3-3-3----------------------3-----3-----3---------------
B-------3---3---3-3-3-3--------------------3-3-----3-----3---------------
G-------0---0---0-0-0-0------0-------------0-0-0---0-----0---------------
D---2--------------------2--------2----0-------0---------------------0---
A---------------------------------------------------------------0h2------
E----------------------------------------------3-------------3-----------
Em7 A7sus4
e-------3-3-3---3-3-3-3-------------------------3-3-3---------3-3---------
B-------3-3-3---3-3-3-3-------------------------3-3-3---------3-3---------
G-------0-0-0---0-0-0-0-------------------------0-0-0---------------------
D---2--------------------2---0--------------2-------2------------------0--
A--------------------------------2------0-----------0--------------0h2----
E-------------------------------------------------------------------------
Em7 A7sus4
e-------3-3-3---3-3-3-3-----------------------3-----------3---------------
B-------3-3-3---3-3-3-3-----------------------3-----------3------3------3-
G-------0-0-0---0-0-0-0-----------------------0------------------0----0-0-
D---2-------------------2---0-------------2-2----------------2-0-0----0-0-
A-------------------------------2-----0-------------0------------0h2------
E-------------------------------------------------------------------------
G (end Rhythm figure 1)
e----3-------3-------3-----------3-3--3-----------3-3-3-----------------
B----3---3-3-3-------3-----------3-3--3-----------3-3-3-----------------
G----0---0-0-0-------0-----------0-0--0-----------0-0-0-----------------
D----0---0---0-------0-------0---0-0--0-------0---0-0-0-------------0---
A----2---2-----------2-----------2-2--2-----------2-2----------0h2------
E----3-----------3---3---3---------3--3---3---------3------3------------
SOLO:(Guitar 2 with first 9 bars of Rhythm Figure 1)
Em7 G
e---------------------------------------------------------------
B-----------3------5-----3--------------------------------------
G------2/4------------4---------4p2p0---------------------------
D----------------------------------------0----------0--0--------
A---------------------------------------------1/2---------------
E---------------------------------------------------------------
Em7 G
e----3/5--3/5----------------------------------------------------
B----3/5--3/5--3/5--5/3-p0--3/5--4/2-p0--------------------------
G--------------2/4--4/2-p0--2/4--4/2-p0-----4---------------x\---
D-------------------------------------------5---------------x\---
A----------------------------------------------------------------
E----------------------------------------------------------------
Друзья сайта
 
Пресса о Supermax!
Albums




 
 
 
 
 
 
 
 
 
 
 
 


Партнеры
 




Kurt Hauenstein и Supermax. Посвящается памяти музыканта. 2008 - 2018 Хостинг от uCoz